Jimmy Eat World - Shame Chords & Tabs

 

Shame Chords & Tabs

Jimmy Eat World Chords & Tabs

Version: 1 Type: Bass Tab 0 ratings
1 star 2 stars 3 stars 4 stars 5 stars
comments

Shame Bass Tab

   
Artist: Jimmy Eat World
Song: Shame
Album: Futures (Import)
Tabbed by: Kmilongo (kmilo1989@gmail.com)
Tuning: Drop-D Tuning (GDAD)

Verse

G|---------------------------------------------------------------|
D|---------------------------------------------------------------|
A|----------------3-3-3-3-3-3-3-3-1-1-1-1-1-1-1-1-1-1-1-1-1-1-1-1|
D|3-3-3-3-3-3-3-3------------------------------------------------|

Chorus
[ Tab from: http://www.guitartabs.cc/tabs/j/jimmy_eat_world/shame_btab.html ]
G|---------------------------------------------------------------|
D|---------------------------------------------------------------|
A|1-1-1-1-1-1-1-1-1-1-1-1-1-1-1-1--------------------------------|
D|--------------------------------0-0-0-0-0-0-0-0-0-0-0-0-0-0-0-0|

G|---------------------------------------------------------------|
D|---------------------------------------------------------------|
A|------------------------------------------------3-3-3-3-3-3-3-3|
D|5-5-5-5-5-5-5-5-5-5-5-5-5-5-5-5-3-3-3-3-3-3-3-3----------------|

Bridge

G|---------------------------|
D|---------------------------|
A|1-1-1---------0-0-0-1-1-1-1|
D|------0-0-0-0--------------|

Order:

Verse x2
Chorus x1
Verse x4
Chorus x2
Bridge x4
Verse x2

Song ends with
D|3(x128)-3~|
Comments