Jimmy Eat World - Salt Sweat Sugar Chords & Tabs

 

Salt Sweat Sugar Chords & Tabs

Jimmy Eat World Chords & Tabs

Version: 2 Type: Tab 0 ratings
1 star 2 stars 3 stars 4 stars 5 stars
comments

Salt Sweat Sugar Tab

   
----------------------------------------------------------------------------------
Jimmy Eat World (:o)                 tabbed by flynnronan@yahoo.com   ==\    /==  
Bleed American (salt sweat sugar)    comments and queries, mail me-      \/\/     
Drop D Tuning (DADBGe)               taken from current album jimmy eat world   
----------------------------------------------------------------------------------
Guitar 1: distorted              the chorus/intro can easily be
Guitar 2: light distortion       played on one guitar by combining
                                 the two parts
Intro- guitar1     (x2)
e----------------------------------------------------------
B----------------------------------------------------------
G----------------------------------------------------------
D-44----44----44------00----00----00------44----44----44---
A-44----44----44------00----00----00------44----44----44---
D-44----44----44------00----00----00------44----44----44---
     - guitar2      (x2)
e----------------------------------------------------------
B----------------------------------------------------------
G----4-6---4-6---4-------4-6---4-6---4-------4-6---4-6---4-
D----------------------------------------------------------
A----------------------------------------------------------
D----------------------------------------------------------
Verse 1- (P.M.)      (x4)
e-----------------------------------------------------------
B-----------------------------------------------------------
G----------------------------------------------44444444444--
D--4444444444444444444444444-00000000000000000-44444444444--
A--4444444444444444444444444-00000000000000000-22222222222--
D--4444444444444444444444444-00000000000000000--------------
 Im not alone cos the tvs on yeah
 Im not crazy cos I take the right pills   everyday 
 And stress clean your conscience          
 Clean your thoughts with speycide   Fill 1: e----- mute at
 Stress clean your conscience        guitar2 B-xxx- 7th fret
                                             G-xxx-
Pre Chorus-                                  D-xxx- 
e----------------------------------------
B----------------------------------------
G--4-4-4444/7-7-7-77777------------------
D--x-x-xxxx-x-x-x-xxxxx------------------
A--2-2-2222/5-5-5-55555------------------
D----------------------------------------
 Clean your thoughts with speycide...

Chorus- 
 Salt sweat! Sugar on the asphalt
 Our hearts, littering the topsoil
 Today, its a picket line in your parade
 Our hearts, our lives, our coal
                       -same as intro, play twice then this,
e----------------------------------------------then play
B----------------------------------------------intro twice
G--------------------------4444444444----------more with this
D---77777777777-00000000---4444444444----------again before 
A---77777777777-00000000---2222222222----------second verse
D---77777777777-00000000-----------------------

Verse 2-    guitar2 throughout (heavy P.M.)
e----------------------------------------------rhythm is very
B---7-7-7-7-7777-7-7---7-7-7-7-7777-7-7--------similar to that
G---x-x-x-x-xxxx-x-x---x-x-x-x-xxxx-x-x--------in everlong
D---4-4-4-4-4444-4-4---4-4-4-4-4444-4-4--------
A----------------------------------------------
D----------------------------------------------
 Im not alone cos the tvs on yeah
 Im not crazy cos I take the right pills   everyday
 And stress clean your conscience          
 Clean your thoughts with speycide   
 Stress clean your conscience        

Pre Chorus-
 Clean your thoughts with speyside...

Chorus 2- as before
[ Tab from: http://www.guitartabs.cc/tabs/j/jimmy_eat_world/salt_sweat_sugar_tab_ver_2.html ]
Interlude- guitar1  (play throughout until final chorus) 
e-------------------------------------------------------------------
B-------------------------------------------------------------------
G-----------------------------------222222222222222---------4444444-
D--44444444444444444-00000000000000-222222222222222-0000000-4444444-
A--44444444444444444-00000000000000-000000000000000-0000000-2222222-
D--44444444444444444-00000000000000-----------------0000000---------
         - guitar2
e----------------------------------------------
B-------7----7----7----7----7---7/5^-----------
G----------------------------------------------
D---4-4--4-4--4-4--0-0--0-0--0-0---------------
A----------------------------------------------
D----------------------------------------------

e----------------------------------------------
B----------------------------------------------
G--999999--999999-99999-9999999-99999999-------
D--xxxxxx--xxxxxx-xxxxx-xxxxxxx-xxxxxxxx-------
A--777777--555555-44444-5555555-22222222-------
D----------------------------------------------

e----------------------------------------------------------------------------------------
B-101010101010101010--9-9-9-9-9-9-9-9-10101010101010-1212121212121212--9-10--9-10--9-12^-
G-111111111111111111-1111111111111111-11111111111111-1111111111111111-11-11-11-11-11-15--
D----------------------------------------------------------------------------------------
A----------------------------------------------------------------------------------------
D----------------------------------------------------------------------------------------
 Greed from my eyes
 Wont they give it a rest?
 Now, now, now, noooooowwwwwwwwww..  (into solo)          (play twice)

Ive come across many versions of this, and there are lots of ways to do this:
Also the live version of the song is different here, and much cooler I reckon
Solo- version 1
e----------------------------------------------------------------------------------------
B----------------------------------------------------------------------------------
G--------9-----------------9-11---------------9----------------------4-4-4--6-6-6-6-6----
D-9-11-9---11-9-11--9-11-9------11-9---9-11-9---11-9-11--99-1111-----x-x-x--x-x-x-X-X----
A----------------------------------------------------------------9---2-2-2--4-4-4-4-4----
D----------------------------------------------------------------------------------------
- version 2  (my preference)
e----------------------------------------------------------------------------------------
B--------(5)---------------(5)-(7)---------------(5)-------------------------------
G-4-6-4------6-4-6---4-6-4---------6-4-----4-6-4-----6-4-6-4-4h6-----4-4-4--6-6-6-6-6----
D----------------------------------------------------------------4---x-x-x--x-x-x-X-X----
A--------------------------------------------------------------------2-2-2--4-4-4-4-4----
D----------------------------------------------------------------------------------------
    - version 3
e---2----(5)-2---2------2--(5)-(7)-2---------2---(5)-2---2-------------------------------
B-4---4--------4------4---4----------4-----4---4-------4---4-4---------------------
G--------------------------------------------------------------------4-4-4--6-6-6-6-6----
D--------------------------------------------------------------------x-x-x--x-x-x-X-X----
A--------------------------------------------------------------------2-2-2--4-4-4-4-4----
D----------------------------------------------------------------------------------------

Chorus 3-                                end on this: G-------
 Salt sweat! Sugar on the asphalt                     D--4-4--
 Our hearts, littering the topsoil                    A--4-4--
 Today, its a picket line in your parade             D--4-4--
 Heeeyyyyyy       our coal  

Thats it. Enjoy. My new movement Flynnduisim is comin to a home near you...
Ill see you soon, sooner than you think...
Comments