Jimmy Eat World - Roller Queen Chords & Tabs

 

Roller Queen Chords & Tabs

Jimmy Eat World Chords & Tabs

Version: 1 Type: Tab

Roller Queen Tab

Standard Tuning

Intro/Verse part 1

e  --------------------------------------2-0---------|
B --------------------------------------------4-0----|
G ---------------------------------------------------|
D ---------------------------------------------------|
A ---------------------------------------------------|
E -7--7--7--7--0--0--0--0-2-4-------------0--0--0--0-|

Verse Part 2
"All that I know is....."

e ------------------------------------------------|
B ------------------------------------------------|
G ------------------------------------------------|
D ------------------------------------------------|
A ------------------------------------------------|
E -4--4--4--4--0--0--0--0--7--7--7--7--0--0--0--0-|

Verse Part 3
"Take me there...."
[ Tab from: http://www.guitartabs.cc/tabs/j/jimmy_eat_world/roller_queen_tab.html ]
e ------------------------------------------------|
B ------------------------------------------------|
G ------------------------------------------------|
D ------------------------------------------------|
A ------------------------------------------------|
E -4--4--4--4--7--7--7--7--4--4--4--4--7--7--7--7-|

Outro

e -----------------------------------------------------|
B -----------------------------------------------------|
G -----------------------------------------------------|
D ---------------------------------4-2-1--------2----2-|
A ------------------------------------------2----------|
E -2--2--2--2--5--5--5--5--0-------------0----0--------|

Order
Intro/Verse part 1
Verse part 2
Verse part 3
Intro/Verse part 1
Verse part 2
Verse part 3
Outro

There you have it.  Its really tough to find tabs for this song, so I thought I would 
and do it myself.  I believe it's correct, it sounds good when played with the song, at least.