Jimmy Eat World - Rockstar Chords & Tabs

 

Rockstar Chords & Tabs

Jimmy Eat World Chords & Tabs

Version: 1 Type: Bass Tab 0 ratings
1 star 2 stars 3 stars 4 stars 5 stars
comments

Rockstar Bass Tab

   
Artist: Jimmy Eat World
Song: Rockstar
Album: Static Prevails
Tabbed by: Kmilongo (kmilo1989@gmail.com)
Tuning: Standard 4-string (GDAE) or Drop-D Tuning (GDAD)

I was surprised when I couldn't find a bass tab for this song, so here you go.
Any comments to kmilo1989@gmail.com.
Enjoy!

STANDARD 4-STRING (GDAE)

Intro

G|-----------------|
D|-----------------|
A|0(x4)-1(x4)-3(x8)|
E|-----------------|

G|-----------------------------|
D|-----------------------------|
A|0(x8)-1(x8)-0(x4)-1(x4)-3(x8)|
E|-----------------------------| (x3)

G|--------------|
D|--------------|
A|0(x8)-1(x8)---|
E|------------1~|

Verse

G|-----------------------------|
D|------------------0(x4)------|
A|------3(x8)-1(x8)-------3(x4)|
E|1(x8)------------------------|

G|-----------------------|
D|-----------------------|
A|------3(x8)-1(x8)------|
E|1(x8)-------------3(x8)|

G|-----------------------------|
D|------------------0(x4)------|
A|------3(x8)-1(x8)-------3(x4)|
E|1(x8)------------------------|

G|--------------------------|
D|--------------------------|
A|------3(x8)-1(x8)---------|
E|1(x8)-------------3(x8)-1~|

Chorus

G|------------------------------------------------|
D|------------------------------------------------|
A|------3(x8)-1(x16)-------3(x8)-0(x4)-1(x4)-3(x8)|
E|1(x8)--------------1(x8)------------------------|

After Chorus

G|-----------------------------|
D|-----------------------------|
A|0(x8)-1(x8)-0(x4)-1(x4)-3(x8)|
E|-----------------------------|

Bridge

G|--------------------------|
D|--------------------------|
A|0(x16)-1(x16)-------3(x16)|
E|-------------1(x16)-------|

Order:
[ Tab from: http://www.guitartabs.cc/tabs/j/jimmy_eat_world/rockstar_btab.html ]
Intro x1 (0:08)
Verse x1 (0:30)
Chorus x2 (0:53)
After Chorus x2 (1:14)
Verse x1 (1:24)
Chorus x2 (1:47)
No Bass until Bridge
Bridge x4 (2:48)

Song ends with 
E|1~| (3:29)

------------------------------------------------------------

DROP-D TUNING (GDAD)

Intro

G|-----------------|
D|-----------------|
A|0(x4)-1(x4)-3(x8)|
D|-----------------|

G|-----------------------------|
D|-----------------------------|
A|0(x8)-1(x8)-0(x4)-1(x4)-3(x8)|
D|-----------------------------| (x3)

G|--------------|
D|--------------|
A|0(x8)-1(x8)---|
D|------------3~|

Verse

G|-----------------------------|
D|------------------0(x4)------|
A|------3(x8)-1(x8)-------3(x4)|
D|3(x8)------------------------|

G|-----------------------|
D|-----------------------|
A|------3(x8)-1(x8)------|
D|3(x8)-------------5(x8)|

G|-----------------------------|
D|------------------0(x4)------|
A|------3(x8)-1(x8)-------3(x4)|
D|3(x8)------------------------|

G|--------------------------|
D|--------------------------|
A|------3(x8)-1(x8)---------|
D|3(x8)-------------5(x8)-3~|

Chorus

G|------------------------------------------------|
D|------------------------------------------------|
A|------3(x8)-1(x16)-------3(x8)-0(x4)-1(x4)-3(x8)|
D|3(x8)--------------3(x8)------------------------|

After Chorus

G|-----------------------------|
D|-----------------------------|
A|0(x8)-1(x8)-0(x4)-1(x4)-3(x8)|
D|-----------------------------|

Bridge

G|--------------------------|
D|--------------------------|
A|0(x16)-1(x16)-------3(x16)|
D|-------------3(x16)-------|

Order:

Intro x1 (0:08)
Verse x1 (0:30)
Chorus x2 (0:53)
After Chorus x2 (1:14)
Verse x1 (1:24)
Chorus x2 (1:47)
No Bass until Bridge
Bridge x4 (2:48)

Song ends with
D|3~| (3:29)
Comments