Jimmy Eat World - Robot Factory Chords & Tabs

 

Robot Factory Chords & Tabs

Jimmy Eat World Chords & Tabs

Version: 1 Type: Bass Tab

Robot Factory Bass Tab

   
Artist: Jimmy Eat World
Song: Robot Factory
Album: Static Prevails
Tabbed by: Kmilongo (kmilo1989@gmail.com)
Tuning: Standard 4-string (GDAE)

Note: I know the Verse is not quite right. Email your corrections!
Note 2: I also know that most of J.E.W songs are usually played in Drop D Tuning.
It's very easy to figure out how to play this song in Drop D when you have the Standard Tuning Tab.
You figure that out. Check out my Rockstar bass tab to get the idea.

Intro 1

G|-----|
D|-----|
A|3(x8)|
E|-----|

G|----------------|
D|----------------|
A|--------22------|
E|000-333----0(x8)|

G|----------------|
D|----------------|
A|--------22-3(x8)|
E|000-333---------|

G|----------------|
D|----------------|
A|--------22------|
E|000-333----2(x8)|

G|----------------|
D|----------------|
A|--------22-3(x8)|
E|000-333---------|

G|----------------|
D|----------------|
A|--------22------|
E|000-333----0(x8)|
[ Tab from: http://www.guitartabs.cc/tabs/j/jimmy_eat_world/robot_factory_btab.html ]
G|----------------|
D|----------------|
A|--------22-3(x8)|
E|000-333---------|

G|----------------|
D|----------------|
A|--------22-5(x8)|
E|000-333---------|

Intro 2

G|-------------------|
D|-------------------|
A|------------222-3-3|
E|0000-3333----------|

Verse

G|------------------|
D|------------------|
A|------2(x8)-------|
E|3(x8)-------0(x16)|

G|-------------|
D|-------------|
A|------2(x8)--|
E|3(x8)-------0|

Bridge 1

G|---------------------------|
D|---------------------------|
A|------2(x8)-3(x8)-666-22222|
E|0(x8)----------------------|

Bridge 2

G|---------------------------|
D|---------------------------|
A|------------------666-22222|
E|0(x8)-2(x8)-3(x8)----------|

Outro

G|---------------|
D|---------------|
A|----------3(x8)|
E|0-00-00-0------|

Order:
Intro 1
Intro 2  x8
Verse
Intro 1
Intro 2  x8
Verse
Bridge 1 x4
Bridge 2 x4
Bridge 1 x4
Outro    x4

Song ends with
E|0~|