Jimmy Eat World - Polaris Chords & Tabs

 

Polaris Chords & Tabs

Jimmy Eat World Chords & Tabs

Version: 3 Type: Tab 0 ratings
1 star 2 stars 3 stars 4 stars 5 stars
comments

Polaris Tab

   
Jimmy Eat World - Polaris
Album - Futures (2004)
Half Step Down (Eb Ab Db Gb Bb Eb)
Acoustic Guitar
Electric Guitar 1 - Clean
Electric Guitar 2 - Clean/Distortion (light)

Intro (0:03)
Acoustic Guitar
eb|------------------------------------------------------------------------|
Bb|------------------------------------------------------------------------|
Gb|------------------------------------------------------------------------|
Db|--6-6-6-6-6-6-6-6-------------------------------------------------------|
Ab|--4-4-4-4-4-4-4-4-------------------------------------------------------|
Eb|------------------------------------------------------------------------|

Intro (0:05)					  
Electric Guitar 1				  |Verse
eb|---4---4-------4---4-------2---2-------2---2---|---4---4-------4---4----|
Bb|--2---2---2---2---2---2---2---2---2---2---2---2|--2---2---2---2---2---2-|
Gb|-4---4---4---4---4---4---4---4---4---4---4---4-|-4---4---4---4---4---4--|
Db|-----------------------------------------------|------------------------|
Ab|-----------------------------------------------|------------------------|
Eb|-----------------------------------------------|------------------------|

Acoustic Guitar
eb|------------------------------------------------------------------------|
Bb|------------------------------------------------------------------------|
Gb|------------------------------------------------------------------------|
Db|6-6-6-6-6-6-6-6-6-6-6-6-6-6-6-6-6-6-6-6-6-6-6-6-6-6-6-6-6-6-6-6-6-6-6-6-|
Ab|4-4-4-4-4-4-4-4-4-4-4-4-4-4-4-4-4-4-4-4-4-4-4-4-4-4-4-4-4-4-4-4-4-4-4-4-|
Eb|------------------------------------------------------------------------|

Electric Guitar 1 (0:18)
eb|---2---2-------2---2-------0---0-------0---0--------7---5---4---2---0---|
Bb|--2---2---2---2---2---2---2---2---2---2---2---2------5---5---5---5---2--|
Gb|-4---4---4---4---4---4---2---2---2---2---2---2----4---4---4---4---4-----|
Db|-------------------------------------------------6----------------------|
Ab|------------------------------------------------------------------------|
Eb|------------------------------------------------------------------------|
Acoustic Guitar
eb|--------------------------------------------------0-0-0-0-0-0-0-0-0-----|
Bb|--------------------------------------------------0-0-0-0-0-0-0-0-0-----|
Gb|--------------------------------------------------1-1-1-1-1-1-1-1-1-----|
Db|-4-4-4-4-4-4-4-4-4-4-4-2-2-2-2-2-2-2-2-2-2-2-2-2--2-2-2-2-2-2-2-2-2-----|
Ab|-2-2-2-2-2-2-2-2-2-2-2-0-0-0-0-0-0-0-0-0-0-0-0-0--2-2-2-2-2-2-2-2-2-----|
Eb|--------------------------------------------------0-0-0-0-0-0-0-0-0-----|


Repeat Verse


Electric Guitar 2 (Play once at 0:31 and 1:06)
eb|------------------------------------------------------------------------|
Bb|-14-----12----10-----9--------------------------------------------------|
Gb|---13-----11-----9-----9------------------------------------------------|
Db|-----11-----9------7-----6----------------------------------------------|
Ab|------------------------------------------------------------------------|
Eb|------------------------------------------------------------------------|


Prechorus (1:21)
Electric Guitar 2
eb|--0-0-0-0-0-0-0-0-0--|            eb|-7-7-7-7-7-7-7-7-|
Bb|--0-0-0-0-0-0-0-0-0--|            Bb|-9-9-9-9-9-9-9-9-|
Gb|--1-1-1-1-1-1-1-1-1--|      or    Gb|-9-9-9-9-9-9-9-9-|
Db|--2-2-2-2-2-2-2-2-2--|            Db|-9-9-9-9-9-9-9-9-|   
Ab|--2-2-2-2-2-2-2-2-2--|            Ab|-7-7-7-7-7-7-7-7-|
Eb|--0-0-0-0-0-0-0-0-0--|            Eb|-x-x-x-x-x-x-x-x-|


Chorus (1:23)
Electric Guitar 2 (distortion)
eb|------------------------------------------------------------------------|
Bb|------------------------------------------------------------------------|
Gb|-99999999--------------------------99999999-----------------------------|
Db|-99999999--99999999--777777777777--99999999--99999999--777777777777-----|
Ab|-77777777--99999999--777777777777--77777777--99999999--777777777777-----|
Eb|-----------77777777--555555555555------------77777777--555555555555-----|

[ Tab from: http://www.guitartabs.cc/tabs/j/jimmy_eat_world/polaris_tab_ver_3.html ]
Acoustic Guitar
You can't really hear an acoustic goin on in the back but its probably there,
so play this on acoustic during the chorus
eb|---------------------00000000----------------------00000000-------------|
Bb|---------------------22222222----------------------22222222-------------|
Gb|-66666666--44444444--22222222--66666666--44444444--22222222-------------|
Db|-66666666--44444444--22222222--66666666--44444444--22222222-------------|
Ab|-44444444--22222222--00000000--44444444--22222222--00000000-------------|
Eb|------------------------------------------------------------------------|


Chorus (Repeat 8 times)
Electric Guitar 1 
eb|-------12-12-------12-12-------12-12-14-14-12-12------------------------|
Bb|-12-12-------12-12-------12-12------------------------------------------|
Gb|------------------------------------------------------------------------|
Db|------------------------------------------------------------------------|
Ab|------------------------------------------------------------------------|
Eb|------------------------------------------------------------------------|


Repeat Verse (1:58) and this
eb|------------------------------------------------------------------------|
Bb|-14-----12----10-----9--------------------------------------------------|
Gb|---13-----11-----9-----9------------------------------------------------|
Db|-----11-----9------7-----6----------------------------------------------|
Ab|------------------------------------------------------------------------|
Eb|------------------------------------------------------------------------|


Repeat Chorus (2:33)


Bridge (3:07)
Electric Guitar 2 (Distortion)
eb|------------------------------------------------------------------------|
Bb|------------------------------------------------------------------------|
Gb|1111111111111111------------------------------------1111111111111111----|
Db|1111111111111111-77777777-1111111111111111-99999999-1111111111111111----|
Ab|-9-9-9-9-9-9-9-9-77777777-1111111111111111-99999999--9-9-9-9-9-9-9-9----|
Eb|-----------------55555555--9-9-9-9-9-9-9-9-77777777---------------------|

eb|------------------------------------------------------------------------|
Bb|------------------------------------------------------------------------|
Gb|------------------------------------------------------------------------|
Db|-77777777-1111111111111111-99999999-444444-777777-----------------------|
Ab|-77777777-1111111111111111-99999999-444444-777777-----------------------|
Eb|-55555555--9-9-9-9-9-9-9-9-77777777-222222-555555-----------------------|


Repeat Chorus (3:46)


Outro (4:20)
Electric Guitar 1                                                 (let ring) 
eb|---4---4-------2---2----------------------------4---4-------2---2------0|
Bb|0-2-0-2-0-2-0-2-0-2-0-2----------------------0-2-0-2-0-2-0-2-0-2-0-2--2-|
Gb|---------------------------------------------------------------------2--|
Db|------------------------------------------------------------------------|
Ab|------------------------------------------------------------------------|
Eb|------------------------------------------------------------------------|

And another guitar plays this over and over
eb|-2-0---2-0---2-0---2-0---2-0---2-0---2-0---2-0---2-0---2-0---2-0--------|
Bb|-----0-----0-----0-----0-----0-----0-----0-----0-----0-----0-----0------|
Gb|------------------------------------------------------------------------|
Db|------------------------------------------------------------------------|
Ab|------------------------------------------------------------------------|
Eb|------------------------------------------------------------------------|


Acoustic Guitar
eb|------------------------------------------------------------------------|
Bb|------------------------------------------------------------------------|
Gb|------------------------------------------------------------------------|
Db|66666666666666-44444444444444-22222222222222----------------------------|
Ab|44444444444444-22222222222222-00000000000000----------------------------|
Eb|------------------------------------------------------------------------|

tabbed by a.g.
Comments