Jimmy Eat World - Polaris Chords & Tabs

 

Polaris Chords & Tabs

Jimmy Eat World Chords & Tabs

Version: 1 Type: Bass Tab 0 ratings
1 star 2 stars 3 stars 4 stars 5 stars
comments

Polaris Bass Tab

   
Jimmy Eat World - Polaris Bass Tab

Verse (0:14)
Gb|------------------------------------------------------------------------|
Db|----------------------------------4-------------------------------------|
Ab|-4-4-4-2-4-4--4-4--4-2-4-4--2-2-2---2-2--2-2--2--2-2-2------------------|
Eb|------------------------------------------------------------------------|

Gb|------------------------------------------------------------------------|
Db|------------------------------------------------------------------------|
Ab|-------7----------------------------------------------------------------|
Eb|-5-5-5---5-5--5-5--5--5-5-5--0-0-0-7-0-0--0-0--0--0-7-0-----------------|

Repeat Verse

Chorus (1:23)
Repeat 4 times
Gb|------------------------------------------------------------------------|
Db|------------------------------------------------------------------------|
Ab|--4-2-4-4---2-2-2--------7--------7-----2-------------------------------|
Eb|-------------------5-5-5---5--5-5---5-----------------------------------|

Repeat Verse and Chorus

Bridge (3:07)
Gb|------------------------------------------------------------------------|
Db|------------------------------------------------------------------------|
Ab|------------------------------------------------------------------------|
Eb|-2-2-2-2-2-2-2-2-2-2-2-2-2-2-2-2-2-5-5-5-5-5-5-5-5-5-5-5-5-5-5-5-5------|

Gb|------------------------------------------------------------------------|
Db|------------------------------------------------------------------------|
Ab|-4-4-4-4-4-4-4-4-4-4-4-4-4-4-4-4-4-2-2-2-2-2-2-2-2-2-2-2-2-2-2-2-2------|
Eb|------------------------------------------------------------------------|
[ Tab from: http://www.guitartabs.cc/tabs/j/jimmy_eat_world/polaris_btab.html ]
Gb|------------------------------------------------------------------------|
Db|------------------------------------------------------------------------|
Ab|------------------------------------------------------------------------|
Eb|-2-2-2-2-2-2-2-2-2-2-2-2-2-2-2-2-2-5-5-5-5-5-5-5-5-5-5-5-5-5-5-5-5------|

Gb|------------------------------------------------------------------------|
Db|------------------------------------------------------------------------|
Ab|-4-4-4-4-4-4-4-4-4-4-4-4-4-4-4-4-4-2-2-2-2-2-2-2-2-2-2-2-2-2-2-2-2------|
Eb|------------------------------------------------------------------------|

Gb|------------------------------------------------------------------------|
Db|------------------------------------------------------------------------|
Ab|------------------------------2-----------------------------------------|
Eb|2-2-2-2-2-2-2-2-5-5-5-5-5-5---------------------------------------------|

Last Chorus (3:46)
Gb|------------------------------------------------------------------------|
Db|------------------------------------------------------------------------|
Ab|4-2-4-4--4-4-4--2-2-2--2-2-2-------7--------7----------2--4-2-4-4--4-4-4|
Eb|-----------------------------5-5-5---5--5-5---5--5-5--------------------|

Gb|------------------------------------------------------------------------|
Db|------------------------------------------------------------------------|
Ab|2-2-2--2-2-2-------7--------7----7-----2--4-2-4-4--4-4-4--2-2-2--2-2-2--|
Eb|-------------5-5-5---5--5-5---5----5------------------------------------|

Gb|------------------------------------------------------------------------|
Db|------------------------------------------------------------------------|
Ab|------7--------7--------2-4-2-4-4--4-4-4--2-2-2--2-2-2--------7---------|
Eb|5-5-5---5--5-5---5--5-5---------------------------------5-5-5---5-------|

Gb|------------------------------------------------------------------------|
Db|------------------------------------------------------------------------|
Ab|-----7--------2-4-------------------------------------------------------|
Eb|-5-5---5--5-5-----------------------------------------------------------|

tabbed by a.g.
Comments