Jimmy Eat World - Pain Chords & Tabs

 

Pain Chords & Tabs

Jimmy Eat World Chords & Tabs

Version: 4 Type: Tab 0 ratings
1 star 2 stars 3 stars 4 stars 5 stars
comments

Pain Tab

   
Jimmy Eat World - Pain
Tabber: Will Sharp
Tuning: Drop D (EBGDAD)
Email: chimaira_tool@hotmail.com

Ok, thought id tab this as no one has got it right so far, This is pretty much
right from what i could piece together from listening and the video.  Solo is
absolutely correct, watch the video if you dont believe me, it is all octives.


Guitar 1: (Palm Mute these) plays this TWICE
							       1st time  2nd time
E|------------------------------------------------------------|---------|---------|
B|------------------------------------------------------------|---------|---------|
G|-5-5-5-5-5-5-5-5--------------------------------------------|---------|---------|
D|-5-5-5-5-5-5-5-5-3-3-3-3-3-3-3-3-1-1-1-1-1-1-1-1-1-1-1-1-1--|--0-0-0--|--5-5-5--|
A|-3-3-3-3-3-3-3-3-3-3-3-3-3-3-3-3-1-1-1-1-1-1-1-1-1-1-1-1-1--|--0-0-0--|--5-5-5--|
D|-----------------3-3-3-3-3-3-3-3-1-1-1-1-1-1-1-1-1-1-1-1-1--|--0-0-0--|--5-5-5--|

Guitar 2: (Palm Mute these) comes in after Guitar 1's 1st repeat
E|------------------------------------------------------------------------|
B|------------------------------------------------------------------------|
G|--5-5-0-0-5-5-0-0-5-5-0-0---0-0-0---------------------------------------|
D|--------------------------3---------------------------------------------|
A|------------------------------------------------------------------------|
D|------------------------------------------------------------------------|


Pre-Chrous:

Guitar 1: (guitar 1 will cut their "2nd time" repeat off to play this)
E|------------------------------------------------------------------------|
B|------------------------------------------------------------------------|
G|------------------------------------------------------------------------|
D|-3-3--5-5---------------------------------------------------------------|
A|-3-3--5-5---------------------------------------------------------------|
D|-3-3--5-5---------------------------------------------------------------|

Guitar 2:
E|------------------------------------------------------------------------|
B|------------------------------------------------------------------------|
G|-8-8-10-10--------------------------------------------------------------|
D|-x-x--x--x--------------------------------------------------------------|
A|-6-6--8--8--------------------------------------------------------------|
D|------------------------------------------------------------------------|


Chorus:

Guitar 1:								 x2
E|------------------------------------------------------------------------|
B|------------------------------------------------------------------------|
G|-5-5-5-5-5-5-5-5-5-5-5-5-5-5-5-5----------------------------------------|
D|-5-5-5-5-5-5-5-5-5-5-5-5-5-5-5-5-3-3-3-3-3-3-3-3-3-3-3-3-3-3-3-3-1-1-1-1|
A|-3-3-3-3-3-3-3-3-3-3-3-3-3-3-3-3-3-3-3-3-3-3-3-3-3-3-3-3-3-3-3-3-1-1-1-1|
D|---------------------------------3-3-3-3-3-3-3-3-3-3-3-3-3-3-3-3-1-1-1-1|

E|------------------------------------------------------------------------|
B|------------------------------------------------------------------------|
G|------------------------------------------------------------------------|
D|-1-1-1-1-1-1-1-1-1-1-1-1-1-5-5-5-5-5-5-5-5-5-5-5-5-5-5-5-5--------------|
A|-1-1-1-1-1-1-1-1-1-1-1-1-1-5-5-5-5-5-5-5-5-5-5-5-5-5-5-5-5--------------|
D|-1-1-1-1-1-1-1-1-1-1-1-1-1-5-5-5-5-5-5-5-5-5-5-5-5-5-5-5-5--------------|

Guitar 2:
E|------------------------------------------------------------------------|
B|------------------------------------------------------------------------|
G|-8-8-8-8-8-8-8-8-8-8-8-8-8-8-8-8--10-10-10-10-10-10-10-10-10-10-10-10-10|
D|-x-x-x-x-x-x-x-x-x-x-x-x-x-x-x-x---x--x--x--x--x--x--x--x--x--x--x--x--x|
A|-6-6-6-6-6-6-6-6-6-6-6-6-6-6-6-6---8--8--8--8--8--8--8--8--8--8--8--8--8|
D|------------------------------------------------------------------------|

E|------------------------------------------------------------------------|
B|------------------------------------------------------------------------|
G|-10-10-10--8-8-8-8-8-8-8-8-8-8-8-8-8-8-8-8--7-7-7-7-7-7-7-7-7-7-7-7-7-7-|
D|--x--x--x--x-x-x-x-x-x-x-x-x-x-x-x-x-x-x-x--x-x-x-x-x-x-x-x-x-x-x-x-x-x-|
A|--8--8--8--6-6-6-6-6-6-6-6-6-6-6-6-6-6-6-6--5-5-5-5-5-5-5-5-5-5-5-5-5-5-|
D|------------------------------------------------------------------------|

									 x2
E|------------------------------------------------------------------------|
B|------------------------------------------------------------------------|
G|-7-7/10-10-10-----------------------------------------------------------|
D|-x-x/-x--x--x-----------------------------------------------------------|
A|-5-5/-8--8--8-----------------------------------------------------------|
D|------------------------------------------------------------------------|


Verse:

Guitar 1: Delay and tremelo effect on
	 (basically, hammer on 5 twice and hold the note while vibrato it)

									x18
E|---4h5p4h5-5V~----------------------------------------------------------|
B|-3----------------------------------------------------------------------|
G|------------------------------------------------------------------------|
D|------------------------------------------------------------------------|
A|------------------------------------------------------------------------|
D|------------------------------------------------------------------------|

Guitar 2: (Palm Mute These)

E|------------------------------------------------------------|---------|
B|------------------------------------------------------------|---------|
G|-5-5-5-5-5-5-5-5--------------------------------------------|---------|
D|-5-5-5-5-5-5-5-5-3-3-3-3-3-3-3-3-1-1-1-1-1-1-1-1-1-1-1-1-1--|--1-1-1--|
A|-3-3-3-3-3-3-3-3-3-3-3-3-3-3-3-3-1-1-1-1-1-1-1-1-1-1-1-1-1--|--1-1-1--|
D|-----------------3-3-3-3-3-3-3-3-1-1-1-1-1-1-1-1-1-1-1-1-1--|--1-1-1--|

							       1st time  2nd time
E|------------------------------------------------------------|---------|---------|
B|------------------------------------------------------------|---------|---------|
G|-5-5-5-5-5-5-5-5--------------------------------------------|---------|---------|
D|-5-5-5-5-5-5-5-5-3-3-3-3-3-3-3-3-1-1-1-1-1-1-1-1-1-1-1-1-1--|--0-0-0--|--5-5-5--|
A|-3-3-3-3-3-3-3-3-3-3-3-3-3-3-3-3-1-1-1-1-1-1-1-1-1-1-1-1-1--|--0-0-0--|--5-5-5--|
D|-----------------3-3-3-3-3-3-3-3-1-1-1-1-1-1-1-1-1-1-1-1-1--|--0-0-0--|--5-5-5--|

After Guitar 2 plays their above riff once through, both guitars go back to
playing their 1st verse parts again.

Repeat Chorus again.


Bridge:
[ Tab from: http://www.guitartabs.cc/tabs/j/jimmy_eat_world/pain_tab_ver_4.html ]
Guitar 1:								 x2
E|------------------------------------------------------------------------|
B|------------------------------------------------------------------------|
G|------------------------------------------------------------------------|
D|-6-6-6-6-6-6-6-6-6-6-6-6-6-6-6-6--2-2-2-2-2-2-2-2-2-2-2-2-2-2-2-2-------|
A|-6-6-6-6-6-6-6-6-6-6-6-6-6-6-6-6--2-2-2-2-2-2-2-2-2-2-2-2-2-2-2-2-------|
D|-6-6-6-6-6-6-6-6-6-6-6-6-6-6-6-6--2-2-2-2-2-2-2-2-2-2-2-2-2-2-2-2-------|

Guitar 2: (1st 2 repeats are just Guitar 2, 2nd 2 repeats Guitar 1 joins in)
E|------------------------------------------------------------------------|
B|------------------------------------------------------------------------|
G|--5-5-0-0-5-5-0-0-5-5-0-0-----0-0---------------------------------------|
D|--------------------------3-3-------------------------------------------|
A|------------------------------------------------------------------------|
D|------------------------------------------------------------------------|


Solo:

Guitar 1: This has alot of bent octaves in it so bend them up to sound like
	  the next notes' pitches and then release them to the original pitch.
E|------------------------------------------------------------------------|
B|------------------------------------------------------------------------|
G|-17-17-16b17r16----17b18r17--16b17r16--16b17r16----13-13-13-13-13-13-13-|
D|--x--x--x--x--x-----x--x--x---x--x--x---x--x--x-----x--x--x--x--x--x--x-|
A|-15-15-14b15r14----15b16r15--14b15r14--14b15r14----11-11-11-11-11-11-11-|
D|------------------------------------------------------------------------|

E|------------------------------------------------------------------------|
B|------------------------------------------------------------------------|
G|-13-13-12-12-12-10\5~----17b18r17--16b17r16--16b17r16----17-17-17-17-17-|
D|--x--x--x--x--x--x\x~-----x--x--x---x--x--x---x--x--x-----x--x--x--x--x-|
A|-11-11-10-10-10--8\3~----15b16r15--14b15r14--14b15r14----15-15-15-15-15-|
D|------------------------------------------------------------------------|

E|------------------------------------------------------------------------|
B|------------------------------------------------------------------------|
G|-17-17-17-20-20-20-19-19-19----17b18r17--16b17r16--16b17r16----13-13-13-|
D|--x--x--x--x--x--x--x--x--x-----x--x--x---x--x--x---x--x--x-----x--x--x-|
A|-15-15-15-18-18-18-17-17-17----15b16r15--14b15r14--14b15r14----11-11-11-|
D|------------------------------------------------------------------------|

E|------------------------------------------------------------------------|
B|------------------------------------------------------------------------|
G|-13-13-13-13-13-13-13-13-13-13-13-13-13-12-12-12-12-12-12-12-12-10-10\--|
D|--x--x--x--x--x--x--x--x--x--x--x--x--x--x--x--x--x--x--x--x--x--x--x\--|
A|-11-11-11-11-11-11-11-11-11-11-11-11-11-10-10-10-10-10-10-10-10--8--8\--|
D|------------------------------------------------------------------------|

Guitar 2:
E|------------------------------------------------------------------------|
B|------------------------------------------------------------------------|
G|-5-5-5-5-5-5-5-5-5-------------------------------------------------5-5-5|
D|-5-5-5-5-5-5-5-5-5-5-5-5-5-5-5-5-5-6-6-6-6-6-6-6-6-3-3-3-3-3-3-3-3-5-5-5|
A|-3-3-3-3-3-3-3-3-3-5-5-5-5-5-5-5-5-6-6-6-6-6-6-6-6-3-3-3-3-3-3-3-3-3-3-3|
D|-------------------5-5-5-5-5-5-5-5-6-6-6-6-6-6-6-6-3-3-3-3-3-3-3-3------|

E|------------------------------------------------------------------------|
B|------------------------------------------------------------------------|
G|-5-5-5-5-5-----------------------------------------5-5-5-5-5-5-5-5------|
D|-5-5-5-5-5-5-5-5-5-5-5-5-5-6-6-6-6-6-6-6-6-8-8-8-8-5-5-5-5-5-5-5-5-5-5-5|
A|-3-3-3-3-3-5-5-5-5-5-5-5-5-6-6-6-6-6-6-6-6-8-8-8-8-3-3-3-3-3-3-3-3-5-5-5|
D|-----------5-5-5-5-5-5-5-5-6-6-6-6-6-6-6-6-8-8-8-8-----------------5-5-5|

E|------------------------------------------------------------------------|
B|------------------------------------------------------------------------|
G|------------------------------------------------------------------------|
D|-5-5-5-5-5-6-6-6-6-6-6-6-6-6-6-6-6-6-6-6-6-3-3-3-3-3-3-3-3-3-3-3-3-3-3-3|
A|-5-5-5-5-5-6-6-6-6-6-6-6-6-6-6-6-6-6-6-6-6-3-3-3-3-3-3-3-3-3-3-3-3-3-3-3|
D|-5-5-5-5-5-6-6-6-6-6-6-6-6-6-6-6-6-6-6-6-6-3-3-3-3-3-3-3-3-3-3-3-3-3-3-3|


Both Guitars: Note that the octaves are only played by one guitar
	     (there are also 2 other sections below where the same octaves are
	      repeated but i havent tabbed them as they are minor.  If you want
	      to play them then they replace the 3rd and 4th power chord on 3rd
	      fret.  The octaves are on 8th/10th frets like below.)
E|------------------------------------------------------------------------|
B|------------------------------------------------------------------------|
G|-5-5-5-5-5-5-5-5-5-------------------------------------------------5-5-5|
D|-5-5-5-5-5-5-5-5-5-5-5-5-5-5-5-5-5-6-6-6-6-6-6-6-6-3-3-3-3-3-3-3-3-5-5-5|
A|-3-3-3-3-3-3-3-3-3-5-5-5-5-5-5-5-5-6-6-6-6-6-6-6-6-3-3-3-3-3-3-3-3-3-3-3|
D|-------------------5-5-5-5-5-5-5-5-6-6-6-6-6-6-6-6-3-3-3-3-3-3-3-3------|

E|------------------------------------------------------------------------|
B|------------------------------------------------------------------------|
G|-5-5-5-5-5------------------------------------10-10--5-5-5-5-5-5-5-5----|
D|-5-5-5-5-5-5-5-5-5-5-5-5-5-6-6-6-6-6-6-6-6-8-8-x--x--5-5-5-5-5-5-5-5-5-5|
A|-3-3-3-3-3-5-5-5-5-5-5-5-5-6-6-6-6-6-6-6-6-8-8-8--8--3-3-3-3-3-3-3-3-5-5|
D|-----------5-5-5-5-5-5-5-5-6-6-6-6-6-6-6-6-8-8-----------------------5-5|

E|------------------------------------------------------------------------|
B|------------------------------------------------------------------------|
G|---------------------------------------------5-5-5-5-5-5-5-5------------|
D|-5-5-5-5-5-5-6-6-6-6-6-6-6-6-3-3-3-3-3-3-3-3-5-5-5-5-5-5-5-5-5-5-5-5-5-5|
A|-5-5-5-5-5-5-6-6-6-6-6-6-6-6-3-3-3-3-3-3-3-3-3-3-3-3-3-3-3-3-5-5-5-5-5-5|
D|-5-5-5-5-5-5-6-6-6-6-6-6-6-6-3-3-3-3-3-3-3-3-----------------5-5-5-5-5-5|

E|------------------------------------------------------------------------|
B|------------------------------------------------------------------------|
G|---------------------------------------------------------------------5~-|
D|-5-5-6-6-6-6-6-6-6-6-6-6-6-6-6-6-6-6-3-3-3-3-3-3-3-3-3-3-3-3-3-3-3-3-5~-|
A|-5-5-6-6-6-6-6-6-6-6-6-6-6-6-6-6-6-6-3-3-3-3-3-3-3-3-3-3-3-3-3-3-3-3-3~-|
D|-5-5-6-6-6-6-6-6-6-6-6-6-6-6-6-6-6-6-3-3-3-3-3-3-3-3-3-3-3-3-3-3-3-3----|


Guitar 1: Effects like before.  This fades out and uses a PANNER EFFECT.

E|---4h5p4h5-5V~----------------------------------------------------------|
B|-3----------------------------------------------------------------------|
G|------------------------------------------------------------------------|
D|------------------------------------------------------------------------|
A|------------------------------------------------------------------------|
D|------------------------------------------------------------------------|

Thats it, questions, comments, anything - Email me.
Comments