Jimmy Eat World - Pain Chords & Tabs

 

Pain Chords & Tabs

Jimmy Eat World Chords & Tabs

Version: 3 Type: Tab 0 ratings
1 star 2 stars 3 stars 4 stars 5 stars
comments

Pain Tab

   
Jimmy Eat World
Pain
Futures
Standard D (Drop D)
Solo included
Tabbed by me (DGER)

.=palm mute
LFS=Listen For Strumming

Erm.  It's a good song, thought I'd tab it out.
Let me know what you think. Listen for the timing/strumming

UPDATES:

OCT 02/04 - I burned the JEW CD, and played it on my good stereo.
The speakers on my computer are awful and after listening to the
solo over and over again I hear it with two strings.
I'll leave the current solo up, but add the other version when
I tab it out.  Sorry guys.

VERSE (Palm mute)
-----------------------|---------------------------|
-----------------------|---------------------------|
--5--------------------|--5------------------------|
--5----3----1-------0--|--5----3----1-------5------|
--3----3----1-------0--|--3----3----1-------5------|
-------3----1-------0--|-------3----1-------5------|

Lead (Palm mute)
---------------------------------------------------|
---------------------------------------------------|
--------12-12-------12-12-------12-12-10-12-12-12--|
--10-10-------10-10-------10-10--------------------|
---------------------------------------------------|
---------------------------------------------------|
(Lead right before chorus breaks in)
---------------------------------------|
---------------------------------------|
--8--7---------------------------------|
--x--x---------------------------------|
--6--5---------------------------------|
---------------------------------------|


CHROUS
---------------------------------------------|
---------------------------------------------|
--5-----------------------5------------------|
--5----3----1----5--------5----3----1----5---|
--3----3----1----5--------3----3----1----5---|
-------3----1----5-------------3----1----5---|
Lead
---------------------------------------------|
---------------------------------------------|
--8---10----8----7--10----8---10----8----7---|
--x----x----x----x---x----x----x----x----x---|
--6----8----6----5---8----6----8----6----5---|
---------------------------------------------|


VERSE (Palm mute)
-----------------------|---------------------------|
-----------------------|---------------------------|
--5--------------------|--5------------------------|
--5----3----1-------0--|--5----3----1-------5------|
--3----3----1-------0--|--3----3----1-------5------|
-------3----1-------0--|-------3----1-------5------|
[ Tab from: http://www.guitartabs.cc/tabs/j/jimmy_eat_world/pain_tab_ver_3.html ]
Lead -played though verse 2  | Right before chorus breaks in
-----------------------------|----------------------|
-------11-11----11-11--------|----------------------|
-----8-----------------------|--8--7----------------|
--10---------10--------------|--x--x----------------|
-----------------------------|--6--5----------------|
-----------------------------|----------------------|
   . .  .  .  .  .  .


CHROUS
---------------------------------------------|
---------------------------------------------|
--5-----------------------5------------------|
--5----3----1----5--------5----3----1----5---|
--3----3----1----5--------3----3----1----5---|
-------3----1----5-------------3----1----5---|
Lead
---------------------------------------------|
---------------------------------------------|
--8---10----8----7--10----8---10----8----7---|
--x----x----x----x---x----x----x----x----x---|
--6----8----6----5---8----6----8----6----5---|
---------------------------------------------|


Bridge x2 (Rhythm palm muted)
---------------------------------------------|
---------------------------------------------|
---------------------------------------------|
--6-----------------3------------------------|
--6-----------------3------------------------|
--6-----------------3------------------------|
Lead
---------------------------------------------|
---------------------------------------------|
--5-5-----5-5-----5-5------------------------|
------5-5-----5-5-----5-5-3/5----------------|
---------------------------------------------|
---------------------------------------------|

SOLO
----------------------------------------------|
--13-13-13-12b13r12--13b15r13-13--12b13r12-12-|
----------------------------------------------|
----------------------------------------------|
----------------------------------------------|
----------------------------------------------|
          |   LFS    |
-----------------------------------------------|
--12b13r12------------13b15r13-13--12b13r12-12-|
-----------13-12-10-5--------------------------|
------------x--x--x-x--------------------------|
-----------11-10--8-3--------------------------|
-----------------------------------------------|
          |   LFS   |
----------------------------------------------|
--12b13r12-----------13b15r13-13--12b13r12-12-|
-----------17-20-19---------------------------|
------------x--x--x---------------------------|
-----------15-18-17---------------------------|
----------------------------------------------|
          |   LFS   |
----------------------------------------------|
--12b13r12------------------------------------|
-----------13-12-10/9\10----------------------|
------------x--x--x-x--x----------------------|
-----------11-10--8/7\-8----------------------|
----------------------------------------------|


LAST CHORUS         |End
--------------------|-------------------------|
--------------------|-------------------------|
--5-----------------|------------5~~----------|
--5----5----6----3--|--6----3----5~~----------|
--3----5----6----3--|--6----3----3~~----------|
-------5----6----3--|--6----3-----------------|

That's it.  Rate and enjoy, thanks.
Comments