Jimmy Eat World - Pain Chords & Tabs

 

Pain Chords & Tabs

Jimmy Eat World Chords & Tabs

Version: 2 Type: Tab 0 ratings
1 star 2 stars 3 stars 4 stars 5 stars
comments

Pain Tab

Band - Jimmy Eat World	
Song - Pain


Intro/verse:                  (Guitar 1)
e|---------------------------------------------------------------------|
B|---------------------------------------------------------------------|
G|---------------------------------------------------------------------|
D|---------------------------------------------------------------------|
A|--3-3-3-3-3-3-3-3----------------------------------------------------|
D|-------------------3-3-3-3-3-3-3-3--1-1-1-1-1-1-1-1-1-1-1-1-0-0-0-0--|

e|---------------------------------------------------------------------|
B|---------------------------------------------------------------------|
G|---------------------------------------------------------------------|
D|---------------------------------------------------------------------|
A|--3-3-3-3-3-3-3-3----------------------------------------------------|
D|-------------------3-3-3-3-3-3-3-3--1-1-1-1-1-1-1-1-1-1-1-1-5-5-5-5--|

e|-------------------|
B|-------------------|
G|--3-3-3-3-7-7-7-7--|
D|--1-1-1-1-5-5-5-5--|
A|--1-1-1-1-5-5-5-5--|
D|--1-1-1-1-5-5-5-5--|

e|-----------------------------------------------------------------------|
B|-----------------------------------------------------------------------|
G|-----------------------------------------------------------------------|
D|-----------------------------------------------------------------------|
A|--3-3-3-3-3-3-3-3------------------------------------------------------|
D|-------------------3-3-3-3-3-3-3-3--1-1-1-1-1-1-1-1-1-1-1-1-1-1-1-1-1--|

e|---------------------------------------------------------------------|
B|---------------------------------------------------------------------|
G|---------------------------------------------------------------------|
D|---------------------------------------------------------------------|
A|--3-3-3-3-3-3-3-3----------------------------------------------------|
D|-------------------3-3-3-3-3-3-3-3--1-1-1-1-1-1-1-1-1-1-1-1-0-0-0-0--|

e|---------------------------------------------------------------------|
B|---------------------------------------------------------------------|
G|---------------------------------------------------------------------|
D|---------------------------------------------------------------------|
A|--3-3-3-3-3-3-3-3----------------------------------------------------|
D|-------------------3-3-3-3-3-3-3-3--1-1-1-1-1-1-1-1-1-1-1-1-5-5-5-5--|

e|-------------------|
B|-------------------|
G|--3-3-3-3-7-7-7-7--|
D|--1-1-1-1-5-5-5-5--|
A|--1-1-1-1-5-5-5-5--|
D|--1-1-1-1-5-5-5-5--|

                               (Guitar 2)
e|---------------------------------------------------------------------|
B|---------------------------------------------------------------------|
G|--5-5-----5-5-----5-5-----5-5-----5-5-----5-5-----5-5-----5-5--------|
D|------5-5-----5-5-----5-5-----5-5-----5-5-----5-5-----5-5-----4-4-5--|
A|---------------------------------------------------------------------|
D|---------------------------------------------------------------------|
pm  . . . . . . . . . . . . . . . . . . . . . . . . . . . . . . . . . 

e|---------------------------------------------------------------------|
B|---------------------------------------------------------------------| 
G|----5-5-----5-5-----5-5-----5-5-----5-5-----5-5-----5-5-----5-5------| 
D|--5-----5-5-----5-5-----5-5-----5-5-----5-5-----5-5-----5-5-----5-5--| 
A|---------------------------------------------------------------------| 
D|---------------------------------------------------------------------| 
pm  . . . . . . . . . . . . . . .     . . . . . . . . . . . . . . . . 

e|-----------------------------|
B|-----------------------------|
G|--5-5------8-8-8-8--7-7-7-7--|
D|------5-5--8-8-8-8--5-5-5-5--|
A|-----------6-6-6-6--5-5-5-5--|
D|-----------------------------|
pm  . . . .  .

Chorus:
    (Guitar 1)
e|--------------|
B|--------------|
G|--5--5--3--7--|
D|--5--3--1--5--|
A|--3--3--1--5--|
D|-----3--1--5--|
 |              |
 |  (Guitar 2)  |
e|--3-----------|
B|--4--6--4--3--|
G|--5--5--3-----|
D|-----------5--|
A|--------------|
D|--------------|

[ Tab from: http://www.guitartabs.cc/tabs/j/jimmy_eat_world/pain_tab_ver_2.html ]
Bridge:                      (Guitar 1)
e|----------------------------------------------------------------|
B|----------------------------------------------------------------|
G|--8---5---8---5---5---7----8-----5---5---7---8---10--4---5------|
D|--6---3---6---3---5---5----6-----3---5---5---6---8---5---5------|
A|--6---3---6---3---3---5----6-----3---3---5---6---8---2---3------|
D|--6---3---6---3-------5----6-----3-------5---6---8--------------|
 |                                                                |
 |                           (Guitar 2)                           |
e|----------------------------------------------------------------|
B|----------------------------------------------------------------|
G|----------------------------------------------------------------|
D|--5-5-----5-5-----5-5------------5-5-----5-5------5-5-----------|
A|------5-5-----5-5-----5-5--3h5-5-----5-5-----5-5------5-5-3h5-5-|
D|----------------------------------------------------------------|

       (Guitar 1)
e|---------------------|             
B|---------------------|             
G|--7---8---5---3---7--|             
D|--5---6---3---1---5--|             
A|--5---6---3---1---5--|             
D|--5---6---3---1---5--|             
                                                      
              (Guitar 2)                                
e|---------------------------------| 
B|---------------------------------| 
G|---------------------------------| 
D|--5-5-----5-5-----5-5------------|
A|------5-5-----5-5-----5-5-3h5-5--| 
D|---------------------------------| 


e|--8-8-8--7b8r7--8b10r8-8-8--7b8r7-7-7--7b8r7-7---4-4-4-4-4-4-3-3-1-1------------8b10r8--|
B|----------------------------------------------------------------------4-4--1-1----------|
G|----------------------------------------------------------------------------------------|
D|----------------------------------------------------------------------------------------|
A|----------------------------------------------------------------------------------------|
D|----------------------------------------------------------------------------------------|

e|--8-8--7b8r7-7-7--7b8r7-7---8-8-8-8---11-11-11-11-10-10-10-10--8b10r8-8-8--7b8r7-7-7--|
B|--------------------------------------------------------------------------------------|
G|--------------------------------------------------------------------------------------|
D|--------------------------------------------------------------------------------------|
A|--------------------------------------------------------------------------------------|
D|--------------------------------------------------------------------------------------|

e|--7b8r7-7---3-3-3-3-3-3-3-3-3-3-3-3-2-2-2-2-2-2-2-2-2-2-3-3-3-3-1-1-1-1--|
B|-------------------------------------------------------------------------|
G|-------------------------------------------------------------------------|
D|-------------------------------------------------------------------------|
A|-------------------------------------------------------------------------|
D|-------------------------------------------------------------------------|

Chorus:
           (Guitar 1)
e|-----------------------------|
B|-----------------------------|
G|--5--7--8--5--5--7--8--10-4--|
D|--5--5--6--3--5--5--6--8--5--|
A|--3--5--6--3--3--5--6--8--2--|
D|-----5--6--3-----5--6--8-----|
 |                             |
 |         (Guitar 2)          |
e|--3-----------3--------------|
B|--4--3--9--6--4--3--9--11-6--|
G|--5-----8--5--5-----8--10-4--|
D|-----5-----------5-----------|
A|-----------------------------|
D|-----------------------------|



             (Guitar 1)
e|---------------------------------|
B|---------------------------------|
G|--5--7--8--5--5--7--8----5----5--|
D|--5--5--6--3--5--5--6----3----5--|
A|--3--5--6--3--3--5--6----3----3--|
D|-----5--6--3-----5--6----3-------|
 |                                 |
 |           (Guitar 2)            |
e|--3-----------3---------------3--|
B|--4--3--9--6--4--3--9----6----4--|
G|--5-----8--5--5-----8----5----5--|
D|-----5-----------5---------------|
A|---------------------------------|
D|---------------------------------|
Comments