Jimmy Eat World - Pain Chords & Tabs

 

Pain Chords & Tabs

Jimmy Eat World Chords & Tabs

Version: 1 Type: Tab 6 ratings
1 star 2 stars 3 stars 4 stars 5 stars
comments

Pain Tab

Tuning: Standard


Intro/verse:

E|--------------------------------------------------------------|
B|--------------------------------------------------------------|
G|--------------------------------------------------------------|
D|--------------------------------------------------------------|
A|3-3-3-3-3-3-3-3---------------------------------------------|
E|---------------3-3-3-3-3-3-3-3-1-1-1-1-1-1-1-1-1-1-1-1-0-0-0-0|

E|--------------------------------------------------------------|
B|--------------------------------------------------------------|
G|--------------------------------------------------------------|
D|--------------------------------------------------------------|
A|3-3-3-3-3-3-3-3-----------------------------------------------|
E|---------------3-3-3-3-3-3-3-3-1-1-1-1-1-1-1-1-1-1-1-1-5-5-5-5|    X2
           
          (2nd time skip last four notes and go to this next part)

E|-------------------|
B|-------------------|
G|--3-3-3-3-7-7-7-7--|
D|--1-1-1-1-5-5-5-5--|
A|--1-1-1-1-5-5-5-5--|
E|--1-1-1-1-5-5-5-5--|

Chorus:

E|--------------|
B|--------------|
G|--5--5--3--7--|
D|--5--3--1--5--|
A|--5--3--1--3--|
E|-----3--1--5--|

Solo:
[ Tab from: http://www.guitartabs.cc/tabs/j/jimmy_eat_world/pain_tab.html ]
E|--888--7b8r7--8b10r8-88--7b8r7-77--7b8r7-7---4-4-4-4-4-4-3-3-1-1------------8b10r8--|
B|----------------------------------------------------------------4-4--1-1--------------------
G|--------------------------------------------------------------------------------------------|
D|--------------------------------------------------------------------------------------------|
A|--------------------------------------------------------------------------------------------|
E|--------------------------------------------------------------------------------------------|

E|--88--7b8r7-7-7--7b8r7---11-11-11-11-10-10-10-10--8b10r8-8-8-8--7b8r7-7-7--|
B|---------------------------------------------------------------------------|
G|---------------------------------------------------------------------------|
D|---------------------------------------------------------------------------|
A|---------------------------------------------------------------------------|
E|---------------------------------------------------------------------------|

E|--7b8r7-7---3-3-3-3-3-3-3-3-3-3-3-3-2-2-2-2-2-2-2-2-2-2-3-3-3-3-1-1-1-1--|
B|------------------------------------------------------------------------|
G|------------------------------------------------------------------------|
D|------------------------------------------------------------------------|
A|------------------------------------------------------------------------|
E|------------------------------------------------------------------------|
Comments