Jimmy Eat World - Pain Chords & Tabs

 

Pain Chords & Tabs

Jimmy Eat World Chords & Tabs

Version: 4 Type: Bass Tab

Pain Bass Tab

   
jimmy eat world- pain
standard tuning e,a,d,g

the only thing u need to no about this song is that it is the easiest song to learn.i 
it but ill tab it for u weirdos out there.

|------------------|------------------|-------------------------|
|------------------|------------------|-------------------------|
|-4-4-4-4-4-4-4-4--|------------------|-------------------------|
|------------------|--4-4-4-4-4-4-4-4-|-222222222222---1-1-1-1--|

|------------------|------------------|-------------------------|
|------------------|------------------|-------------------------|
|-4-4-4-4-4-4-4-4--|------------------|-------------------------|
|------------------|--4-4-4-4-4-4-4-4-|-222222222222---6-6-6-6--|
[ Tab from: http://www.guitartabs.cc/tabs/j/jimmy_eat_world/pain_btab_ver_4.html ]
|------------------|------------------|-------------------------|
|------------------|------------------|-------------------------|
|-4-4-4-4-4-4-4-4--|-4-4-4-4-4-4-4-4--|-------------------------|
|------------------|------------------|--4-4-4-4-4-4-4-4--------|

|------------------|
|------------------|
|------------------|
|-4-4-4-4-4-4-4-4--|

|------------------|-------------------|-------------------------|
|------------------|-------------------|-------------------------|
|------------------|-------------------|-------------------------|
|-2-2-2-2-2-2-2-2--|-2-2-2-2-2-2-2-2---|66666666---666666666-----|

solo
|-5--5-5-5-5-5-----|--------------------|----------------------------|
|-1-2-2-2-2-2-3-3--|--------------------|----------------------------|
|------------------|-------------------5|----------------------------|
|------------------|-------------9-8-7--|----8-66-5-4--3-3-3---------|

now this till the end

|----------------------------------------------------------------|
|----------------------------------------------------------------|
|--------------------------------------------------------2222222-|
|-7777777----666666666666-----444444444444444444444444-----------|