Jimmy Eat World - No Sensitivity Chords & Tabs

 

No Sensitivity Chords & Tabs

Jimmy Eat World Chords & Tabs

Version: 4 Type: Tab 0 ratings
1 star 2 stars 3 stars 4 stars 5 stars
comments

No Sensitivity Tab

                      Jimmy Eat World- No Sensitivity solo

Tabbed by:Duker
Email:duker86@hotmail.com

Tuning:standard

e|-----7------7-------7------7------7-------7-------7-------7-------7--------|
B|-12----12------10------9------7------5--------4-------2-------0-------0----|
G|---------------------------------------------------------------------------|
D|---------------------------------------------------------------------------|
A|---------------------------------------------------------------------------|
E|---------------------------------------------------------------------------|

e|-7------------7-------7--------7-------7-------7-------------------7-------|
B|-----0---12------12-------10-------9-------7-------5---4---5---7-----------|
G|---------------------------------------------------------------------------|
D|---------------------------------------------------------------------------|
A|---------------------------------------------------------------------------|
E|---------------------------------------------------------------------------|
[ Tab from: http://www.guitartabs.cc/tabs/j/jimmy_eat_world/no_sensitivity_tab_ver_4.html ]
e|-9p7-------7-------7-------7-------7-------7-------------7------7----------|
B|-------12-----12-------10------9-------7-------5----12------12------10-----|
G|---------------------------------------------------------------------------|
D|---------------------------------------------------------------------------|
A|---------------------------------------------------------------------------|
E|---------------------------------------------------------------------------|

e|--7------7--------7-----------7------7------7-----7------7-----------------|
B|-----9-------7--------5---12-----12-----10-----9-----7------5---4--5---7---|
G|---------------------------------------------------------------------------|
D|---------------------------------------------------------------------------|
A|---------------------------------------------------------------------------|
E|---------------------------------------------------------------------------|

e|--9----7-------------------------------------------------------------------|
B|---------------------------------------------------------------------------|
G|---------------------------------------------------------------------------|
D|---------------------------------------------------------------------------|
A|---------------------------------------------------------------------------|
E|---------------------------------------------------------------------------|
Comments