Jimmy Eat World - No Sensitivity Chords & Tabs

 

No Sensitivity Chords & Tabs

Jimmy Eat World Chords & Tabs

Version: 3 Type: Tab 0 ratings
1 star 2 stars 3 stars 4 stars 5 stars
comments

No Sensitivity Tab

This is the first tab I've ever written, please rate it. I've been looking for a good
tab for No Sensitivity for some time, and I've been compiling multiple ones to get the
sound that I was looking for. This tab is the whole song as it should sound.

I tabbed the solo out differently, it will sound better and be easier to play the way I have written it.







This is how I play the intro:

1st part of intro:

e|---x---x---x---x---|   Play Each of these chords 3x.
B|---x---x---x---x---|
G|---4---4---4---4---|
D|---0---0---0---2---|
A|---4---2---2---0---| 
E|---x---x---x---x---| 

x1

2nd part of intro:

e|---9---7---5---|
B|---9---7---5---|
G|---9---8---6---|
D|---11--9---7---|
A|---11--9---7---| 
E|---9---7---5---|

x2

2nd Guitar Part played under 2nd part of intro:

e|----------------------------|
B|----------------------------|
G|----------------------------|
D|----------------------------|
A|---4--7--6--2--44-222-44-222|
E|----------------------------|

verse: 

e|---9---7---5---|
B|---9---7---5---|
G|---9---8---6---|
D|---11--9---7---|
A|---11--9---7---| 
E|---9---7---5---|


chorus: 


e|-2-----4/5------0--2--|
B|-2-----4/5------0--2--|
G|-2-----5/6------1--4--|
D|-4-----6/7------2--4--|
A|-4-----6/7---22-2--2--|
E|-2-----4/5---00-0--x--|

Bridge:

e|-2-----4/5------0--2--|
B|-2-----4/5------0--2--|
G|-2-----5/6------1--4--|
D|-4-----6/7------2--4--|
A|-4-----6/7---22-2--2--|
E|-2-----4/5---00-0--x--|


Played under bridge:

e|-----2----2----5-----5----2-----2--|
B|---2----2----5-----5----2-----2----|
G|-2----2----6-----6----4-----4------|
D|-----------------------------------|
A|-----------------------------------|
E|-----------------------------------|


solo: 

e|-7-7-7---5-5-5--4-4-4--2-2--0-0-------------------------------| 
B|---------------------------------4-4-4--2-2-2--0-0-0-0-0-0----| 
G|--------------------------------------------------------------|
D|--------------------------------------------------------------| 
A|--------------------------------------------------------------|
E|--------------------------------------------------------------| 


e|-7-7-7---5-5-5--4-4-4--2-2--0-0----0--2--9---7---5-4-5--------| 
B|---------------------------------4----------------------------| 
G|--------------------------------------------------------------|
D|--------------------------------------------------------------| 
A|--------------------------------------------------------------|
E|--------------------------------------------------------------| 

[ Tab from: http://www.guitartabs.cc/tabs/j/jimmy_eat_world/no_sensitivity_tab_ver_3.html ]
e|-7-7-7---5-5-5--4-4-4--2-2--0-0---7-7-7---5-5-5--4-4-4--2-2--0-0-| 
B|-----------------------------------------------------------------| 
G|-----------------------------------------------------------------|
D|-----------------------------------------------------------------| 
A|-----------------------------------------------------------------|
E|-----------------------------------------------------------------| 


e|-7-7-7---5-5-5--4-4-4--2-2--0-0----0-2-9-7-5-4-2-----------------| 
B|---------------------------------4-------------------------------| 
G|-----------------------------------------------------------------|
D|-----------------------------------------------------------------| 
A|-----------------------------------------------------------------|
E|-----------------------------------------------------------------| 




Order of song goes:


Intro Part 1 x 1
Intro Part 2 x 2
Verse 1
Chorus
Verse 2
Chorus
Bridge
Solo
Chorus

Lyrics:

Intro

Verse 1:

I've got my car we could go and sit a while
I know it won't turn over but we'll get somewhere just the same
I'm through talking
(it's the strangest thing, I feel safe when I'm lonely)
don't take too much
you'll get burned if it's all at one time

Chorus:

the world won't spin without you
I'm amazed your standing still
I'm taking my kisses back from you
I want my kisses back from you
your problems, they aren't problems
be glad they never will
I'm taking my kisses back from you
I want my kisses back from you

Verse 2:

take it easy don't you get it?
it's just an expression
would you raise your voice every time a little dirt gets under?
cry if you want
(it's the return of no sensitivity)
you don't have to scream to say something that you honestly mean

Chorus:

the world won't spin without you
I'm amazed your standing still
I'm taking my kisses back from you
I want my kisses back from you
your problems, they aren't problems
so praise God they never will
I'm taking my kisses back from you
I want my kisses back from you

Bridge: 

when you hear those footsteps calling
isn't it obvious
isn't it obvious
it's O.K. if you don't answer
isn't it obvious?
I thought it was obvious.

Chorus:

the world won't spin without you
I'm amazed your standing still
I'm taking my kisses back from you
I want my kisses back from you
your problems, they aren't problems
be glad they never will
I'm taking my kisses back from you
I want my kisses back from you




And that's the song, good luck with it!

Any Questions? Email me at AnimeX24@aol.com
AIM: AlucardX24
Comments