Jimmy Eat World - No Sensitivity Chords & Tabs

 

No Sensitivity Chords & Tabs

Jimmy Eat World Chords & Tabs

Version: 1 Type: Tab 0 ratings
1 star 2 stars 3 stars 4 stars 5 stars
comments

No Sensitivity Tab

   
#----------------------------------PLEASE NOTE---------------------------------#
#This file is the author's own work and represents their interpretation of the #
#song. You may only use this file for private study, scholarship, or research. #
#------------------------------------------------------------------------------#
No Sensitivity by Jimmy Eat World
by Jeffrey Chupp - if you like or hate this, email me
This is the chords for guitar one, most of the tab for guitar two and most of the solo
Tabbed from the Acoustic Version and Studio Version
Lyrics taken from http://www.jimmyeatworldonline.com and edited
(the lyrics are different in the acoustic and studio and live versions in simple variations)
this version of the solo can be heard here on a crappy acoustic guitar (only 242k)
both guitars, dropped d

Now is a good time to mention that i don't know how to show timing 
and i'm not perfectly showing how many times you strum, either

Intro:

guitar One: C#, B, A X2

second time, guitar two enter with something like this.
guitar two:

e-----------------------------------------------------------
B-----------------------------------------------------------
G---6--9--8-------9-----------------------------------------
D-------------7---9-----------------------------------------
A---4--7--6---7---7-----------------------------------------
D-------------7---7-----------------------------------------

Verse One:

guitar two plays this twice
e---------------------------------------------------------
B---------------------------------------------------------
G---6--4--------9-----------------------------------------
D-----------7---9-----------------------------------------
A---4--2----7---7-----------------------------------------
D-----------7---7-----------------------------------------

then 
e-----------------------------------------------------------
B-----------------------------------------------------------
G---6--9--8-------9-----------------------------------------
D-------------7---9-----------------------------------------
A---4--7--6---7---7-----------------------------------------
D-------------7---7-----------------------------------------

then (don't take too much, you'll get burned if its all at one time)
e-----------------------------------------------------------
B-----------------------------------------------------------
G---6--9--8-------------------------------------------------
D-------------4---6--7--------------------------------------
A---4--7--6---4---6--7--------------------------------------
D-------------4---6--7--------------------------------------

chorus:
[ Tab from: http://www.guitartabs.cc/tabs/j/jimmy_eat_world/no_sensitivity_tab.html ]
e-------------------------------------------
B-------------------------------------------
G-------------------------------------------
D---4---------------------------------------
A---4---------------------------------------
D---4---------------------------------------

    world don't spin without you 

e-------------------------------------------
B-------------------------------------------
G------------------------14-----------------
D----7--------------------------------------
A----7-------------------12-----------------
D----7--------------------------------------

i'm amazed your standin' still

e------------------------------------------------------------
B------------------------------------------------------------
G------------------------------------------------------------
D---------2-------------------------------7------------------
A---------2-------------------------------7------------------
D---------2-------------------------------7------------------

takin' my kisses back from you, i want my kisses back from you

(repeat that)

second verse, same as first verse
second chorus, same as first chorus

bridge:

same chords as guitar one, pick them and use some hammer-on's and pulloffs.
C#, A, E, B

SOLO:  this is guitar one's solo...  meaning that jim plays it while tom plays bridge chords

THIS IS NOT EXACT BY ANY MEANS, just meant to help you figure it out

e-----------------------------------------------------------
B-----------------------------------------------------------
G--\14-14-13-13-11-11-9-9-9-9--8-9-7-9--6--4-----------------
D-----------------------------------------------------------
A--\12-12-11-11-9--9--7-7-7-7--6-7-6-7--4--2-----------------
D-----------------------------------------------------------

                                         let ring
e-----------------------------------------------------------
B------------------------------------14--12--------12-------
G--\14-14-13-13-11-11-9-9-9-9-8-9-7-------------------------
D------------------------------------11--9---------9--------
A--\12-12-11-11-9--9--7-7-7-7-6-7-9-------------------------
D-----------------------------------------------------------

e-----------------------------
B-----------------------------
G--\14-14-13-13-11-11-9-9-9-9-
D----------------------------- x 3
A--\12-12-11-11-9--9--7-7-7-7-
D-----------------------------

then 

e----
B----
G--9-
D---- several times and end on a B powerchord and go into final choruses
A--7-
D----

________________________________

Declare Chords:

For the acoustic I play
     DADGBe
C#:  X46600
B:   X24400
A:   X02200 or 577655 or 577XXX (in last line of verse)
F#:  444XXX
G#:  666XXX
F#m: 444222
E:   222100

For the electric I play simple powerchords
     DADGBe
C#:  X466XX
B:   X244XX
A:   X022XX or 777XXX
F#:  444XXX
G#:  666XXX
F#m: 444XXX
E:   222XXX
Comments