Jimmy Eat World - No Sensitivity Chords & Tabs

 

No Sensitivity Chords & Tabs

Jimmy Eat World Chords & Tabs

Version: 1 Type: Bass Tab 0 ratings
1 star 2 stars 3 stars 4 stars 5 stars
comments

No Sensitivity Bass Tab

Jimmy Eat World - No Sensitivity

This song isn't too hard, but it is right. It is note for note the second guitar part.
Drop D Tuning
[ Tab from: http://www.guitartabs.cc/tabs/j/jimmy_eat_world/no_sensitivity_btab.html ]
Intro
G-----------------------------------------------
D-----------------------------------------------
A--7--77--77----7--77--77-----------------------
D-----------------------------------------------
Verse
G-----------------------------------------------
D-----------------------------------------------     3x
A-444--777--666-66--777-77--777-77--------------
D-----------------------------------------------
Pre-Chours
G-----------------------------------------------
D-----------------------------------------------
A-444--777--666-66------------------------------
D----------------------333333333-44-555555555---
Chorus
G-----------------------------------------------
D-----------------------------------------------    2x
A-444444444444--77777777777--2222222222--6666666
D-----------------------------------------------
(No bass on interlude)
Outro
G-----------------------------------------------
D-----------------------------------------------    4x
A-44444444444--22222222222--777777777-99--666666
D-----------------------------------------------

That's it, and this one is for MackDaddyKK
Comments