Jimmy Eat World - Night Drive Chords & Tabs

 

Night Drive Chords & Tabs

Jimmy Eat World Chords & Tabs

Version: 1 Type: Tab 0 ratings
1 star 2 stars 3 stars 4 stars 5 stars
comments

Night Drive Tab

---------------------------------------------------------------------------
			     Night Drive - Jimmy Eat World
----------------------------------------------------------------------------
Tabbed by: Wade Abbott
Email: wadeab@hotmail.com

Tuning: Half-Step down (Eb), Drop D
[ Tab from: http://www.guitartabs.cc/tabs/j/jimmy_eat_world/night_drive_tab.html ]
Intro/Verse/PreChorus/Chorus (Played throughout song.)
e|-------------------------------------------------------------------------|
B|-------------------------------------------------------------------------|
G|----------2--------------------------------------------------------------|
D|-2--5--0--2--------------------------------------------------------------|
A|-2--5--0--0--------------------------------------------------------------|
E|-2--5--0-----------------------------------------------------------------|
Bells or Piano over the chorus.
e|---9-10-9-10-9-7-5/7----9-10-9-10-9-7-7/5--------------------------------|
B|-------------------------------------------------------------------------|
G|-------------------------------------------------------------------------|
D|-------------------------------------------------------------------------|
A|-------------------------------------------------------------------------|
E|-------------------------------------------------------------------------|

That's pretty much all the song.


| /  slide up
| \  slide down
============================================================================
Comments