Jimmy Eat World - Night Drive Chords & Tabs

 

Night Drive Chords & Tabs

Jimmy Eat World Chords & Tabs

Version: 1 Type: Bass Tab 0 ratings
1 star 2 stars 3 stars 4 stars 5 stars
comments

Night Drive Bass Tab

i think this is all right, listen to the track for exact timing.


(X 15)
G ---------------------------------------------------------------|
D 1-1-1-1-1-1-1-1--4-4-4-4-4-4-4-4---------------6-6-6-6-6-6-6-6-|
A --------------------------------4-4-4-4-4-4-4-4----------------|
E ---------------------------------------------------------------|

(in this part let each note ring for 7 counts, then play the next note. listen to the 
for clarification.)

G --------------------------------------------------------|
D 1-------4---------------6-------1-------4---------------|
A ----------------4-------------------------------4-------|
E --------------------------------------------------------|
[ Tab from: http://www.guitartabs.cc/tabs/j/jimmy_eat_world/night_drive_btab.html ]
(x 2)
G ---------------------------------------------------------------|
D 1-1-1-1-1-1-1-1--4-4-4-4-4-4-4-4---------------6-6-6-6-6-6-6-6-|
A --------------------------------4-4-4-4-4-4-4-4----------------|
E ---------------------------------------------------------------|

G -------------------------------|
D 1-1-1-1-1-1-1--4-4-4-4-4-4-4-4-|
A -------------------------------|
E -------------------------------|

(x 10)
G ---------------------------------------------------------------|
D 1-1-1-1-1-1-1-1--4-4-4-4-4-4-4-4---------------6-6-6-6-6-6-6-6-|
A --------------------------------4-4-4-4-4-4-4-4----------------|
E ---------------------------------------------------------------|

rock hard,
kate
Comments