Jimmy Eat World - My Sundown Chords & Tabs

 

My Sundown Chords & Tabs

Jimmy Eat World Chords & Tabs

Version: 6 Type: Tab 0 ratings
1 star 2 stars 3 stars 4 stars 5 stars
comments

My Sundown Tab

   
-------------------------------------------------------------------------------
			    My Sundown - Jimmy Eat World
-------------------------------------------------------------------------------

Tabbed by: mrfancypants


This is definitely one of the best songs on this cd.  I'm a huge fan of all
acoustic songs, so this tab is the best way I've found to play it with one
acoustic. It doesn't sound just like the recording, but if you like playing
all acoustic stuff, this is what you want.


Capo 1

Tab relative to capo.


PART 1- This is played in the intro, verses, interludes, and long outro
        Only play the open e in () toward the end of the song when it builds up
        more.

e|--------(0)(0)(0)(0)--------(0)(0)(0)(0)-------(0)(0)(0)(0)----------------|
B|---------3--3--3--3----------3--3--3--3----------3--3--3--3----------------|
G|---------2--2--2--2----------2--2--2--2----------2--2--2--2----------------|
D|-0-0-0-0-0--0--0--0----------2--2--2--2----------0--0--0--0----------------|
A|---------------------0-0-0-0-0--0--0--0----------x--x--x--x----------------|
E|-----------------------------------------3-3-3-3-3--3--3--3----------------|
  p.m.----|            p.m.---|            p.m.------------------------------|
[ Tab from: http://www.guitartabs.cc/tabs/j/jimmy_eat_world/my_sundown_tab_ver_6.html ]
e|--------(0)(0)(0)(0)--------------|
B|---------3--3--3--3---------------|
G|---------2--2--2--2---------------|
D|---------0--0--0--0---------------|
A|---------x--x--x--x---------------|
E|-3-3-3-3-3--3--3--3---------------|
  p.m.----|

PART 2- This is played during the choruses ("With one hand high..."). It's basically 
a D2/B (similar to Bm) and a D2/G. You can either pick it or strum it. This is the picking 
that I think works best.
e|---o-----0----|
B|---3-----3----|
G|---2-----2----|
D|---0-----0----|
A|---2-----x----|
E|---------3----|
   D2/B  D2/G

e|--------------0---------------0---------------0---------------0-----|
B|----------3-----3---------3-----3---------3-----3---------3-----3---|
G|------2-----2---------2-----2---------2-----2---------2-----2-------|
D|----0---0-----------0---0-----------0---0-----------0---0-----------|
A|--2---------------2-------------------------------------------------|
E|----------------------------------3---------------3-----------------|


Order:

Part 1 x8
Part 2 x2
Part 1 x4
Part 2 x4
Part 1 x14


That's it! Hope You Enjoy!

|p.m. palm mute
| /  slide up
| \  slide down
| h  hammer-on
| p  pull-off
| ~  vibrato
| +  harmonic
| x  Mute note
===============================================================================
Comments