Jimmy Eat World - My Sundown Chords & Tabs

 

My Sundown Chords & Tabs

Jimmy Eat World Chords & Tabs

Version: 5 Type: Tab 0 ratings
1 star 2 stars 3 stars 4 stars 5 stars
comments

My Sundown Tab

Ok I've seen the tabs for this song before, but I'm positive mine is the way the band 
it, so here it goes.

Tuning: Drop D Tuning, capo 1


Intro: Play D5 and A5 eight times, and G5 16 times
E-----------------------------------|
B-----------------------------------|
G-----------------------------------|
D--0---7---5------------------------|
A--0---7---5------------------------|
D--0---7---5------------------------|

Verse: Same as intro but less strumming, listen to the song to figure it out
E-----------------------------------|
B-----------------------------------|
G-----------------------------------|
D--0---7---5------------------------|
A--0---7---5------------------------|
D--0---7---5------------------------|
[ Tab from: http://www.guitartabs.cc/tabs/j/jimmy_eat_world/my_sundown_tab_ver_5.html ]
Chorus: Again, listen to the song to figure out the strumming
E-----------------------------------|
B-----------------------------------|
G-----------------------------------|
D--9---5---9---7---5---7------------|
A--9---5---9---7---5---5------------|
D--9---5---9---7---5---5------------|

E-----------------------------------|
B-----------------------------------|
G-----------------------------------|
D--0---7---5------------------------|
A--0---7---5------------------------|
D--0---7---5------------------------|

Another guitar also plays something along these lines, and keeps repeating it..

E-----------0-------5---------------|
B---2---3-------3-------------------|
G-----------------------------------|
D-----------------------------------|
A-----------------------------------|
D-----------------------------------|


Interlude:
E---------10----------10------------|
B---------X-----------X-------------|
G--10-----7-----10----7-------------|
D--X------------X-------------------|
A--8------------8-------------------|
D-----------------------------------|

Ok after the interlude it goes back to the intro so just play that until the song ends 
you should be good to go...

This is my first tab, so I hope it helped some of you out
Comments