Jimmy Eat World - My Sundown Chords & Tabs

 

My Sundown Chords & Tabs

Jimmy Eat World Chords & Tabs

Version: 3 Type: Tab 0 ratings
1 star 2 stars 3 stars 4 stars 5 stars
comments

My Sundown Tab

I'm 99% sure this is the correct way to play My Sundown.  I looked all over
the net and couldn't find any correct versions, so I had to figure it out.
This is my created version, please do not take it as your own work. It's all
standard tuning.  

Tabbed By: Travis Ralph

Guitar 1 (Repeats throughout whole song)
E ------------------------------------------------------------------------------
B ------------------------------------------------------------------------------
G ------------------------------------------------------------------------------
D -9-9-9-9-9-9-9-9--------------------------------------------------------------
A -7-7-7-7-7-7-7-7-9-9-9-9-9-9-9-9-7-7-7-7-7-7-7-7-7-7-7-7-7-7-7-7--------------
E -----------------7-7-7-7-7-7-7-7-5-5-5-5-5-5-5-5-5-5-5-5-5-5-5-5--------------


Guitar 2 (Arranged from piano)
E ------------------------------------------------------------------------------
B ------------------------------------------------------------------------------
G -------11-11-11-11-11-------11-11-11-11-11-------9-9-9-9-9-------9-9-9-9-9-9--
D -------9--9--9--9--9--------9--9--9--9--9--------7-7-7-7-7-------7-7-7-7-7-7--
A ------------------------------------------------------------------------------
E ------------------------------------------------------------------------------

Guitar 2 (Chorus) Repeat 8x
E -------------7---
B -5-4-5-7-5-------
G -----------------
A -----------------
E -----------------
[ Tab from: http://www.guitartabs.cc/tabs/j/jimmy_eat_world/my_sundown_tab_ver_3.html ]
Guitar 2 (Bridge)
E ------------------------------------------------------------------------------
B ------------------------------------------------------------------------------
G -11-11-11-13-9-9-------8-8-8-9-6-6--------4-4-4-4-4-4-------4-4-4-4-4-4-------
D ------------------------------------------------------------------------------
A ------------------------------------------------------------------------------
E ------------------------------------------------------------------------------

End Chord
E ---------
B ---------
G -9-------
D -9-------
A -7-------
E ---------

Lyrics:

I see it around me
I see it in everything
I could be so much 
More than this
I said my goodbye's
this is my sundown
I'm gonna be so much 
More than this

(Chorus)
With one hand high
You'll show them your progress
You'll take your time
But no one cares
no one cares

I need you to show me
The way from crazy
I wann be so much more than this

With one hand high
You'll show them your progress
You'll take your time
But no one cares

With one hand high
You'll show them your progress
You'll take your time
But no one cares
No one cares

I could be so much 
More than this 
No one cares
I wanna be so much
More than this
No one cares
I could be so much 
More than this
No one cares
I wanna be so much
More than this
No one cares
I wanna be so much
More than this
No one cares
I wanna be so much 
More than this

Good goodbye
Lovely time
Good goodbye
Tin sunshine
Good goodbye
I'll be fine
Good goodbye
Good goodnight
Comments