Jimmy Eat World - My Sundown Chords & Tabs

 

My Sundown Chords & Tabs

Jimmy Eat World Chords & Tabs

Version: 10 Type: Tab 0 ratings
1 star 2 stars 3 stars 4 stars 5 stars
comments

My Sundown Tab

Originally tabbed By: Travis Ralph
I changed tab to sound exactly like in song. Corrected Main guitar riff, and added
tuning information.

Tune guitar half step down: Eb2, G#2, C#3, F#3, Bb3, Eb4

Guitar 1 (Repeats throughout whole song)
Eb4 ------------------------------------------------------------------------------|
Bb3 ------------------------------------------------------------------------------|
F#3 ------------------------------------------------------------------------------|
C#3 -----------------4-4-4-4-4-4-4-4----------------------------------------------|
G#2 -2-2-2-2-2-2-2-2-2-2-2-2-2-2-2-2-7-7-7-7-7-7-7-7-7-7-7-7-7-7-7-7--------------|
Eb2 -0-0-0-0-0-0-0-0-----------------5-5-5-5-5-5-5-5-5-5-5-5-5-5-5-5--------------|

[ Tab from: http://www.guitartabs.cc/tabs/j/jimmy_eat_world/my_sundown_tab_ver_10.html ]
Guitar 2 (Arranged from piano)
Eb4 ------------------------------------------------------------------------------|
Bb3 ------------------------------------------------------------------------------|
F#3 -------11-11-11-11-11-------11-11-11-11-11-------9-9-9-9-9-------9-9-9-9-9-9--|
C#3 -------9--9--9--9--9--------9--9--9--9--9--------7-7-7-7-7-------7-7-7-7-7-7--|
G#2 ------------------------------------------------------------------------------|
Eb2 ------------------------------------------------------------------------------|

Guitar 2 (Chorus) Repeat 8x
Eb4 -------------7---|
Bb3 -5-4-5-7-5-------|
F#3 -----------------|
C#3 -----------------|
G#2 -----------------|
Eb2 -----------------|

Guitar 2 (Bridge)
Eb4 ------------------------------------------------------------------------------|
Bb3 ------------------------------------------------------------------------------|
F#3 -11-11-11-13-9-9-------8-8-8-9-6-6--------4-4-4-4-4-4-------4-4-4-4-4-4-------|
C#3 ------------------------------------------------------------------------------|
G#2 ------------------------------------------------------------------------------|
Eb2 ------------------------------------------------------------------------------|

End Chord
Eb4 ---------|
Bb3 ---------|
F#3 ---------|
C#3 -2-------|
G#2 -2-------|
Eb2 -0-------|
Comments