Jimmy Eat World - Most Beautiful Things Chords & Tabs

 

Most Beautiful Things Chords & Tabs

Jimmy Eat World Chords & Tabs

Version: 1 Type: Tab 0 ratings
1 star 2 stars 3 stars 4 stars 5 stars
comments

Most Beautiful Things Tab

Pleanty of people have heard Jimmy Eat World's "The Middle", but I 
say we go back a step to their best song, "The Most Beautiful Things". 

 |Intro |   verse (1&2) (Acoustic\Clean)                               
e|--0---|--0-----0------0-----0-----0-----0------0------0----|
B|---0--|----0-----0------0-----0-----0-----0------0------0--|
G|----2-|------2------------2-----------2------------2-------|
D|------|0---------------------------------------------------|
A|------|------------4---------------------------------------|
E|------|-------------------------4------------0-------------|
          Repeat above as necesssary
[ Tab from: http://www.guitartabs.cc/tabs/j/jimmy_eat_world/most_beautiful_things_tab.html ]
Chorus With Distortion 4x's
e|-------|------|---------------|
B|-------|------|---------3-3-3-|
G|-7-----|-7----|---------2-2-2-|
D|-7-----|-7----|--4-4-4--------|
A|-5-----|-4----|--4-4-4--------|
E|-------|------|--4-4-4--------|
   1+2+3+  1+2+3+  1+2+3+ 1+2+3+

Bridge with distortion
e--------------------------------------------------|
B--------------------------3-3-3-3-3-3-3-3-3-3-3-3-|
G-2-2-2-2-2-2--------------2-2-2-2-2-2-2-2-2-2-2-2-|
D-2-2-2-2-2-2-4-4-4-4-4-4--------------------------|
A-------------4-4-4-4-4-4--------------------------|
E-------------4-4-4-4-4-4--------------------------|

Play this as many times as needed, then go back to the chorus.
I have not figured out the guitar solo as of yet,
so you will have look elsewhere (Good Luck)

The order is:
--intro--
--verse 1--
--chorus--
--verse 2--
--chorus--
--bridge--
--chorus--

Listen for the timing on the cd.

I would love to get feedback, mainly because this is my first 
submission, And if you like this one, then it will not be my last. 

Marc
metallica4ever27@hotmail.com
Comments