Jimmy Eat World - Middle Chords & Tabs

 

Middle Chords & Tabs

Jimmy Eat World Chords & Tabs

Version: 5 Type: Tab 0 ratings
1 star 2 stars 3 stars 4 stars 5 stars
comments

Middle Tab

   
#----------------------------------PLEASE NOTE---------------------------------#
#This file is the author's own work and represents their interpretation of the #
#song. You may only use this file for private study, scholarship, or research. #
#------------------------------------------------------------------------------#
Middle - Jimmy Eat World
chords through out song are D5, A5, G5 and D5 again, 
in that order, very easy

 D5  A5  G5  D5
|----------------
|----------------
|-7-----------7--
|-7---7---5---7--
|-5---7---5---5--

solo:

|-----------------------------------------------------------
|-----------------------------------------------------------
|-----------------------------------------------------------
|-11h12p11-9h11p9-7h9p7-4h5p4-0-2-0-------------------------
|-----------------------------------4-5-4-5/7-5-4-5-4h5p4-5-
|-----------------------------------------------------------

|-----------------------------------------------------------
|-----------------------------------------------------------
|-----------------------------------------------------------
|-11h12p11-9h11p9-7h9p7-4h5p4-0-2-0-------------------------
|-----------------------------------4-5-4-5-5-5-5-7-7-7-7-9-
|-----------------------------------------------------------

|-----------------------------------------------------------
|-----------------------------------------------------------
|-----------------------------------------------------------
|--------------------------------------------12-0-12-12/14--
|-9-9-9-10-10-12-10-9-10-9-10-12-10-9-10--------------------
|-----------------------------------------12----------------

|-----------------------------------------------------------
|-----------------------------------------------------------
|--------------------19-19-19-19-19-19-18-18-18-18-18-18-16-
|-0-14/16-0-16-16/17----------------------------------------
|-----------------------------------------------------------
|-----------------------------------------------------------

|-------------------------------------------------
|-------------------------------------------------
|-16-16-16-16-16-14-14-14-14-14-14-12-11-9-7-6-4--
|-------------------------------------------------
|-------------------------------------------------
|-------------------------------------------------

(from the high 19 till the 12 is fast up and down picking, 
I think it is 6 picks at each, but it may be 8, play it how 
you think.)
[ Tab from: http://www.guitartabs.cc/tabs/j/jimmy_eat_world/middle_tab_ver_5.html ]
That's the whole song, pretty simple, just one riff, you have to 
remember to use palm muting on the verses and not on the chorus,
and if you can't manage the solo, get a mate to play it!  
any corrections or praise, send to 
im_starting_2_like_th@barmaid.co.uk

***************************************************************************************************************

"The Middle" by Jimmy Eat World
Tab by Jay Bartholomew

Play the Intro riff for all the verses.  I put chords in the verse 
just to show when the key changes occur in the Intro riff.  You can 
also just play the chords muted in the verse and it'll sound okay.  
For the exact playing, use the tab though.  Try pressing down on the 
actual metal fret bar for a good mute sound.


Intro (all notes muted)
e|-------------------------------------------------------------------|
B|-------------------------------------------------------------------|
G|-------------------------------------------------------------------|
D|-4-4-------------------4-4-4-4-4-2-2-------------------------------|
A|-----5-5-5-5-5-5-5-5-5---------------4-4-4-4-4-4-4-4-4-4-4-4-------|
E|-------------------------------------------------------------------|

e|-------------------------------------------------------------------|
B|-------------------------------------------------------------------|
G|-------------------------------------------------------------------|
D|-------------------------------------------------------------------|
A|-5-5-5-5-5-5-5-5-4-4-4-4-4-4-4-4-4-5-5-5-5-5-5-5-5-5-5-5-5-5-5-5-5-|
E|-------------------------------------------------------------------|

Sorry no solo.  If anyone has it please send it to me.  Questions and
stuff can be sent to jaybar36@hotmail.com and I'll respond in a few 
days tops.

***************************************************************************************************************

The Middle (acoustic)


Tabbed by: Josh Ellis 
hey peeps, this is an acoustic version of Jimmy Eat World's The Middle. 






   (G)     (D)   (Cadd9)  (G)
----3-------2-------3------3----------------
----3-------3-------3------3----------------
----0-------2-------0------0---------------- use same chords but different strumming pattern for chorus.
----0-------0-------2------0----------------
----2-------0-------3------2----------------
----3---------------0------3----------------


Any questions, comments, rebuttal, or credit card numbers can be sent to thematrix147@hotmail.com
Comments