Jimmy Eat World - Middle Chords & Tabs

 

Middle Chords & Tabs

Jimmy Eat World Chords & Tabs

Version: 2 Type: Tab 7 ratings
1 star 2 stars 3 stars 4 stars 5 stars
comments

Middle Tab

   
#---------------------------------YOU BEST NOTE-------------------------------#
#This file is the author's own work and represents their interpretation of the#
#song. You may only use this file for private study, scholarship, or research.#
#-----------------------------------------------------------------------------#
#---------------------------------YOU BEST NOTE-------------------------------#
#This file is the author's own work and represents their interpretation of the#
#song. You may only use this file for private study, scholarship, or research.#
#-----------------------------------------------------------------------------#

Middle 

Jimmy Eat World

Transcribed by Brian S.


(notes stuck together are tremolo picked)

Intro : PM throughout
e--------------------------------------------------------|
b--------------------------------------------------------|
g--------------------------------------------------------|
d--------------------------------------------------------|
a--9-9--5-5-5-5-5-5-5-9-9-9-9-9-9--7-7--4-4-4-4-4-4-4-4--|
D--0-0--0-0-0-0-0-0-0-0-0-0-0-0-0--0-0--0-0-0-0-0-0-0-0--|

e--------------------------------------------------------|
b--------------------------------------------------------|
g--------------------------------------------------------|
d--------------------------------------------------------|
a--5-5-5-5-5-5-5-5--4-4-4-4-4-4-4-4--5-5-5-5-5-5-5-5-5---|
D--0-0-0-0-0-0-0-0--0-0-0-0-0-0-0-0--0-0-0-0-0-0-0-0-0---|

Verse : PM throughout
   D5				     A5
e-----------------------------------------------------|
b-----------------------------------------------------|
g-----------------------------------------------------|
d-----------------------------------------------------|
a--5-5-5-5-5-5-5-5--5-5-5-5-5-5-5-5--7-7-7-7-7-7-7-7--|
D--0-0-0-0-0-0-0-0--0-0-0-0-0-0-0-0--7-7-7-7-7-7-7-7--|
		    G5 	
e-----------------------------------------------------|
b-----------------------------------------------------|
g-----------------------------------------------------|
d-----------------------------------------------------|
a--7-7-7-7-7-7-7-7--5-5-5-5-5-5-5-5--5-5-5-5-5-5-5-5--|
D--7-7-7-7-7-7-7-7--5-5-5-5-5-5-5-5--5-5-5-5-5-5-5-5--|
   D5
e------------------------------------|
b------------------------------------|
g------------------------------------|
d------------------------------------|
a--5-5-5-5-5-5-5-5--5-5-5-5-5-5-5-5--|
D--0-0-0-0-0-0-0-0--0-0-0-0-0-0-0-0--|
[ Tab from: http://www.guitartabs.cc/tabs/j/jimmy_eat_world/middle_tab_ver_2.html ]
Chorus :
e-----------------------------------------------------------------|
b--------------3----------------------------------------3---------|
g--------------2---------------9------------7-----------2---------|
d--------------0-----strum-----7---strum----5--strum----0--strum--|
a--------------0---------------7------------5-----------0---------|
D--------------0---------------7------------5-----------0---------|
 It just takes sometime...

Solo :
e--------------------------------------------------------|
b--2h3p2p0-----------------------------------------------|
g----------4p2p0-----------------------------------------|
d----------------4p2p0-----------------------------------|
a----------------------4p2p0--0h2--4--/5--4--2--0--4--5--|
D--------------------------------------------------------|

e-----------------------------------------|
b-----------------------------------------|
g-----------------------------------------|
d-----------------------------------------|
a--4--4h7--5--4--5vv--7--5--4-5-----------|
D-------------------------------0vvvvvv---|

e-------------------------------------------------------|
b--2h3p2p0----------------------------------------------|
g----------4p2p0----------------------------------------|
d----------------4p2p0------------/5--4--2--0--4--2--0--|
a----------------------4p2p0--0h2-----------------------|
D-------------------------------------------------------|

e----------------------------------------------------------|
b----------------------------------------------------------|
g----------------------------------------------------------|
d---00000000-2222222--44444444--555555555---5--/7vv--5--4--|
a----------------------------------------------------------|
D----------------------------------------------------------|

e-----------------------------------------------------------|
b-----------------------------------------------------------|
g-------------------------------/7---7/9---9/11---11-11/12--|
d--5vv--4-5-7vv--5--4--5vv--4-5----x-----x------x-----------|
a-----------------------------------------------------------|
D-----------------------------------------------------------|

e--------------------------------------------------------|
b--------15151515151515-14141414141414--12121212121212---|
g-11-12--------------------------------------------------|
d--------------------------------------------------------|
a--------------------------------------------------------|
D--------------------------------------------------------|

e----------------------------------------------|
b-101010101010101010---8---7---5---5---5---3---|
g----------------------9---7---6---7---6---2---|
d----------------------------------------------|
a----------------------------------------------|
D----------------------------------------------|


Fill under Verse after solo :

Syth arrg. for Guitar :
e---------------------------------------------------------|
b---------------------------------------------------------|
g----------11------------11-----------11-----------11-----|
d-------12----12------12----12-----12----12-----12----12--|
a---12------------12------------12-----------12-----------|
D---0-------------0-------------0------------0------------|
Comments