Jimmy Eat World - Middle Chords & Tabs

 

Middle Chords & Tabs

Jimmy Eat World Chords & Tabs

Version: 12 Type: Tab 0 ratings
1 star 2 stars 3 stars 4 stars 5 stars
comments

Middle Tab

   
                              The middle - Solo


Dropped D!!!


E||------------------------------|-----------------------|
B||--2h3p2p0---------------------|-----------------------|
G||----------2--0----------------|-----------------------|
D||----------------4h5p4p0-------|--2--0---------0-------|
A||------------------------4--0--|----------4---------4--|
D||------------------------------|-----------------------|

------------------------|-------------------------|
------------------------|-------------------------|
------------------------|-------------------------|
--2----0-----0-------0--|--2--0h2p0---------------|
----------4-------4-----|-----------0-------------|
------------------------|--------------0----------|

------------------------------|-----------------------|
--2h3p2p0---------------------|-----------------------|
----------2--0----------------|-----------------------|
----------------4h5p4p0-------|--2--0---------0-------|
------------------------4--0--|----------4---------4--|
------------------------------|-----------------------|
[ Tab from: http://www.guitartabs.cc/tabs/j/jimmy_eat_world/middle_tab_ver_12.html ]
----------------------------------|---------------------------------|
----------------------------------|---------------------------------|
----------------------------------|---------------------------------|
--0-0-0-0-0-0-0-0-2-2-2-2-2-2-2-2-|--4-4-4-4-4-4-5-5-5-5-5-5-5-5-5--|
----------------------------------|---------------------------------|
----------------------------------|---------------------------------|

------------------------|------------------------|------------------------|
------------------------|------------------------|------------------------|
------------------------|------------------------|--7--7----7--9--9----9--|
--7----5--4--5----4--5--|--7----5--4--5----4--5--|------------------------|
------------------------|------------------------|------------------------|
------------------------|------------------------|------------------------|

------------------------|--10-10-10-10-10-10-10-10-9-9-9-9-9-9-9-9-|
--7--7----7--8----7--8--|------------------------------------------|
------------------------|------------------------------------------|
------------------------|------------------------------------------|
------------------------|------------------------------------------|
------------------------|------------------------------------------|

--------------------------------------------------|---------------------|
--12-12-12-12-12-12-12-12-10-10-10-10-10-10-10-10-|---------------------|
--------------------------------------------------|--9------7------6----|
--------------------------------------------------|---------------------|
--------------------------------------------------|---------------------|
--------------------------------------------------|---------------------|

---------------------||
---------------------||
---------------------||
----9------7----5----||
---------------------||
---------------------||
Comments