Jimmy Eat World - Middle Chords & Tabs

 

Middle Chords & Tabs

Jimmy Eat World Chords & Tabs

Version: 10 Type: Tab 0 ratings
1 star 2 stars 3 stars 4 stars 5 stars
comments

Middle Tab

#----------------------------------PLEASE NOTE--------------------------------#
#This file is the author's own work and represents their interpretation of the#
#song. You may only use this file for private study, scholarship, or research.#
#-----------------------------------------------------------------------------#
#-- File created with Instab - http://www.pconline.com/~smcarey/instab.html --#
#-----------------------------------------------------------------------------#

Author/Artist: Jimmy Eat World
Title: The Middle
Album: Jimmy Eat World
Transcribed by: punkrawker
Email: punkrawker245@aol.com

This tab is 100% correct. I got it from a book.
Standard Tuning
[ Tab from: http://www.guitartabs.cc/tabs/j/jimmy_eat_world/middle_tab_ver_10.html ]
------------------------------------------------------------------------------|
------------------------------------------------------------------------------|
------------------------------------------------------------------------------|
---4-4-----------------4-4-4-4----2-2-----------------------------------------|
-------5-5-5-5-5-5-5------------------4-x11-5-x11-4-x11-5-x-11----------------|
------------------------------------------------------------------------------|
      all this is palm muted

------------------------------------------------------------------------------|
------------------------------------------------------------------------------|
---7--------------------------------------------------------------------------|
---7---------------7-------------5----------7---------------------------------|
---5---------------7-------------5----------7---------------------------------|
-------------------5-------------3----------5---------------------------------|
 verse 1 guitar plays it the whole time. 2nd starts playing in the middle

------------------------------------------------------------------------------|
------------------------------------------------------------------------------|
------------------------------------------------------------------------------|
------------------------------------------------------------------------------|
------------------------------------------------------------------------------|
------------------------------------------------------------------------------|
 its the same thing for the chorus and i dont  know the solo
Comments