Jimmy Eat World - Middle Solo Chords & Tabs

 

Middle Solo Chords & Tabs

Jimmy Eat World Chords & Tabs

Version: 5 Type: Tab 0 ratings
1 star 2 stars 3 stars 4 stars 5 stars
comments

Middle Solo Tab

   
#----------------------------------PLEASE NOTE---------------------------------#
#This file is the author's own work and represents their interpretation of the #
#song. You may only use this file for private study, scholarship, or research. #
#------------------------------------------------------------------------------#
The Middle - Jimmy Eat World
Play this song in drop D because its a lot easier trust me. Palm Mute through
the verses and open it up during the chorus.



D5  A5  G5  D5
|----------------|
|----------------|
|-7-----------7--|
|-7---7---5---7--|
|-5---7---5---5--|
|-----7---5------|


solo:

|-----------------------------------------------------------|
|-----------------------------------------------------------|
|-----------------------------------------------------------|
|-11h12p11-9h11p9-7h9p7-4h5p4-0-2-0-------------------------|
|-----------------------------------4-5-4-5/7-5-4-5-4h5p4-5-|
|-----------------------------------------------------------|
[ Tab from: http://www.guitartabs.cc/tabs/j/jimmy_eat_world/middle_solo_tab_ver_5.html ]
|-----------------------------------------------------------|
|-----------------------------------------------------------|
|-----------------------------------------------------------|
|-11h12p11-9h11p9-7h9p7-4h5p4-0-2-0-------------------------|
|-----------------------------------4-5-4-5-5-5-5-7-7-7-7-9-|
|-----------------------------------------------------------|

|-----------------------------------------------------------|
|-----------------------------------------------------------|
|-----------------------------------------------------------|
|--------------------------------------------12-0-12-12/14--|
|-9-9-9-10-10-12-10-9-10-9-10-12-10-9-10--------------------|
|-----------------------------------------12----------------|

|-----------------------------------------------------------|
|-----------------------------------------------------------|
|-------------------19-19-19-19-19-19-19-18-18-18-18-18-18-18-16-|
|-0-14/16-0-16-16/17----------------------------------------|
|-----------------------------------------------------------|
|-----------------------------------------------------------|

|-------------------------------------------------|
|-------------------------------------------------|
|16-16-16-16-16-16-14-14-14-14-14-14-14-12-11-9-7-6-4--|
|-------------------------------------------------|
|-------------------------------------------------|
|-------------------------------------------------|

(from the high 19 till the 12 is really fast up and down picking,
im 100% sure its 8 picks I counted) 
Comments