Jimmy Eat World - Middle Solo Chords & Tabs

 

Middle Solo Chords & Tabs

Jimmy Eat World Chords & Tabs

Version: 2 Type: Tab 0 ratings
1 star 2 stars 3 stars 4 stars 5 stars
comments

Middle Solo Tab

Middle Solo.

Email me if you have any questions, hari182@yahoo.com

h - hammer on
p - pull off
pm - palm mute
\ - foward slide



E||-----------------------------------------------------------------|
B||--2h3p2p0--------------------------------------------------------|
G||----------2h4p2p0------------------------------------------------|
D||------------------4h5p4p0--------2-0---0-------------------------|
A||--------------------------4h5p40-----4---4-5\7-5-4-5-4-5-4h5p4---|
E||---------------------------------------------------------------5-| 

if playing dropped D the last note can be played on the 5th string
like this:

E||-----------------------------------------------------------------|
B||--2h3p2p0--------------------------------------------------------|
G||----------2h4p2p0------------------------------------------------|
D||------------------4h5p4p0--------2-0---0-------------------------|
A||--------------------------4h5p40-----4---4-5\7-5-4-5-4-5-4h5p4-0-|
D||-----------------------------------------------------------------|


[ Tab from: http://www.guitartabs.cc/tabs/j/jimmy_eat_world/middle_solo_tab_ver_2.html ]
E||--------------------------------------------------------------------|
B||--2h3p2p0-----------------------------------------------------------|
G||----------2h4p2p0--------------------------77777777-99999999-11--11-|
D||------------------4h5p4p0--------2-0---0----------------------------|
A||--------------------------4h5p40-----4---4-55555555-77777777-9---9--|
E||--------------------------------------------------------------------| 

(PM - Palm mute the next note )

E||--------------------------------------------------------------------|
B||--------------------------------------------------------------------|
G||-12---12---14-12-11-12-11-12-14-12-11-12-11-12--7--(PM)77-9--(PM)99-|
D||--------------------------------------------------------------------|
A||-10---10---12-10-9--10-9--10-12-10-9--10-9--10----------------------|
E||--------------------------------------------------------------------| 

E||------------------1010101010101010-99999999-77777777-55555555----------|
B||7--(PM)77--8--7-8-mute string with index finger and strum    ----------|
G||------------------mute string with index finger and strum    -\9--7--6-|
D||------------------mute string with index finger and strum    ----------|
A||------------------mute string with index finger and strum    ----------|
E||------------------mute string with index finger and strum    ----------| 

E||--------------------------------------------------------------------|
B||--------------------------------------------------------------------|
G||--------------------------------------------------------------------|
D||-9--7--5------------------------------------------------------------|
A||--------------------------------------------------------------------|
E||--------------------------------------------------------------------| 
Comments