Jimmy Eat World - Lucky Denver Mint Chords & Tabs

 

Lucky Denver Mint Chords & Tabs

Jimmy Eat World Chords & Tabs

Version: 1 Type: Bass Tab 0 ratings
1 star 2 stars 3 stars 4 stars 5 stars
comments

Lucky Denver Mint Bass Tab

"Lucky Denver Mint" by Jimmy Eat World
Transcribed by Jon Ritts (BigEarl192000@yahoo.com)

Tuned in Drop D

Verse: (0:09)
G|-------------------------|-----------------|-----------------|-----------------|
D|-------------------------|-----------------|-----------------|-----------------|
A|-------------------------|-----------------|-----------------|-----------------|
D|-12-12-12-12-12-12-12-12-|-7-7-7-7-7-7-7-7-|-9-9-9-9-9-9-9-9-|-9-9-9-9-9-9-9-9-|
 (play 4x)
[ Tab from: http://www.guitartabs.cc/tabs/j/jimmy_eat_world/lucky_denver_mint_btab.html ]
Chorus: (0:40)
G|-----------------|-----------------|-----------------|-----------------|
D|-----------------|-----------------|-----------------|-----------------|
A|-----------------|-----------------|-----------------|-----------------|
D|-0-0-0-0-0-0-0-0-|-7-7-7-7-7-5/7\5-|-9-9-9-9-9-9-9-9-|-9-9-9-9-9-9-9-9-|
 (play 2x)

Play verse again 4x (0:56)
Play chorus 4x (1:27)

Bridge: (1:59)
G|-----------------|-----------------|-----------------|-----------------|
D|-----------------|-----------------|-----------------|-----------------|
A|-----------------|-----------------|-----------------|-----------------|
D|-5-5-5-5-5-5-5-5-|-7-7-7-7-7-7-7-7-|-9-9-9-9-9-9-9-9-|-9-9-9-9-9-9-9-9-|
 (play 3x)

G|-----------------|-----------------|-----------------|------------------|
D|-----------------|-----------------|-----------------|------------------|
A|-----------------|-----------------|-----------------|------------------|
D|-5-5-5-5-5-5-5-5-|-7-7-7-7-7-7-7-7-|-9-9-9-9-9-9-9-9-|-9-9-9-9-xxxxxxxx-|

Play chorus 4x (put deadened notes into the ending the 2nd time through)
Comments