Jimmy Eat World - Kill Chords & Tabs

 

Kill Chords & Tabs

Jimmy Eat World Chords & Tabs

Version: 4 Type: Tab 0 ratings
1 star 2 stars 3 stars 4 stars 5 stars
comments

Kill Tab

The song is in drop D tuning with a capo at the first fret.  I will tab it out as
relative to the capo.


Intro/Verse
-------------------------------------------------------------------]
-------------------------------------------------------------------]
-2-------2-------2---------2--------2--------2---------------------]
-0-------0-------0---------0--------0--------0---------------------]  x3
-0-------0-------0---------0--------0--------0---------------------]
----44------44------4----------00-------00-------0-----------------]

then

--------------------------------------------------------------------]
--------------------------------------------------------------------]
---2-------2-------2--------222---222---22--------------------------]
---2-------2-------2--------222---222---22--------------------------]
----------------------------333---333---33--------------------------]
------22------22------2---------------------------------------------]


Chorus
[ Tab from: http://www.guitartabs.cc/tabs/j/jimmy_eat_world/kill_tab_ver_4.html ]
---000---000---00-------------------------------------------------------------]
---000---000---00-------------------------000---000---00----------------------]
---222---222---22-----888---888---88------222---111---11------111---111---11--]
---000---000---00-----000---000---00------222---222---22------222---222---22--]  x4
---444---444---44-----000---000---00--------------------------222---222---22--]
---444---444---44-----000---000---00------------------------------------------]


Bridge x2
-----------------------------------------------------------------------]
-222---222---22----222---222---22--------------------------------------]
-222---222---22----222---222---22------111---111---11---111---111--11--]
---------------------------------------222---222---22---222---222--22--]
---------------------------------------222---222---22---222---222--22--]
-----------------------------------------------------------------------]




---000---000---00--------------------------------------------------------------]
---000---000---00----------------------222---222---22--------------------------]
---222---222---22------888--888--88----222---222---22----111---111---11--------]
---000---000---00------000--000--00----------------------222---222---22--------]
---444---444---44------000--000--00----------------------222---222---22--------]
---444---444---44------000--000--00--------------------------------------------]


Song Structure

Intro
Verse 1
Chorus
Verse 2
Chorus
Bridge
Chorus

If you have any questions or comments email face_first@hotmail.com
This is my first tab ever.
Comments