Jimmy Eat World - Kill Chords & Tabs

 

Kill Chords & Tabs

Jimmy Eat World Chords & Tabs

Version: 3 Type: Tab 0 ratings
1 star 2 stars 3 stars 4 stars 5 stars
comments

Kill Tab

Band - Jimmy Eat World
Song - Kill

Tuning: Drop D

Intro:
e|----------------------------------|
B|----------------------------------|
G|----------------------------------|
D|-8-5-5-8-5-5-8-5-1-1-1-1-1-1-1-1--|  x2
A|-8-5-5-8-5-5-8-5-1-1-1-1-1-1-1-1--|
D|-8-5-5-8-5-5-8-5-1-1-1-1-1-1-1-1--|

Verse:
e|----------------------------------|
B|----------------------------------|
G|----------------------------------|
D|-8-5-5-8-5-5-8-5-1-1-1-1-1-1-1-1--|  x3
A|-8-5-5-8-5-5-8-5-1-1-1-1-1-1-1-1--|
D|-8-5-5-8-5-5-8-5-1-1-1-1-1-1-1-1--|

e|----------------------------------|
B|----------------------------------|
G|----------------------------------|
D|-3-3-3-3-3-3-3-3-3-3-3-3-3-3-3-3--|
A|-3-3-3-3-3-3-3-3-3-3-3-3-3-3-3-3--|
D|-3-3-3-3-3-3-3-3-3-3-3-3-3-3-3-3--|
[ Tab from: http://www.guitartabs.cc/tabs/j/jimmy_eat_world/kill_tab_ver_3.html ]
Chorus:
e|------------------------------------------------------------------|
B|------------------------------------------------------------------|
G|---------------------------------3-3-3-3-3-3-3-3------------------|
D|-5-5-5-5-5-5-5-5-1-1-1-1-1-1-1-1-3-3-3-3-3-3-3-3-3-3-3-3-3-3-3-3--|  x4
A|-5-5-5-5-5-5-5-5-1-1-1-1-1-1-1-1-1-1-1-1-1-1-1-1-3-3-3-3-3-3-3-3--|
D|-5-5-5-5-5-5-5-5-1-1-1-1-1-1-1-1-----------------3-3-3-3-3-3-3-3--|

Bridge:
e|--------------------------------------------------------------------|
B|-----6-----6---------6-----6-----6-----6-----6---------6-----6------|
G|---5-----5-----5---5-----5-----5-----5-----5-----5---5-----5-----5--|
D|-8-----8-----8---8-----8-----8-----7-----7-----7---7-----7-----7----|
A|--------------------------------------------------------------------|
D|--------------------------------------------------------------------|

e|--------------------------------------------------------------|
B|--------------------------------------------------------------|
G|-----5-----5---------5-----5---------5-----5---------5-----5--|
D|-5-8---5-8---5-8---8-----8-----8---8-----8-----8---8-----8----|  x4
A|-----------------6-----6-----6---8-----8-----8---8-----8------|
D|--------------------------------------------------------------|

Outro:
e|----------------------------------|
B|----------------------------------|
G|----------------------------------|
D|-5-5-5-5-5-5-5-5-1-1-1-1-1-1-1-1--|
A|-5-5-5-5-5-5-5-5-1-1-1-1-1-1-1-1--|
D|-5-5-5-5-5-5-5-5-1-1-1-1-1-1-1-1--|
Comments