Jimmy Eat World - Kill Chords & Tabs

 

Kill Chords & Tabs

Jimmy Eat World Chords & Tabs

Version: 1 Type: Tab 1 rating
1 star 2 stars 3 stars 4 stars 5 stars
comments

Kill Tab

   
#----------------------------------PLEASE NOTE---------------------------------#
#This file is the author's own work and represents their interpretation of the #
#song. You may only use this file for private study, scholarship, or research. #
#------------------------------------------------------------------------------#

Kill - jimmy eat world
Hope this sound right to you. 

G#m (466444) I usually play this chord on the chorus like this (x44200).
     I just think it sounds better
F#  (244322) In the chorus I usually prefer play this (F5: 244xxx)
     and you can even alternate the F# with this (x14322) or (2143xx)
     
I had some problem figuring out the middle part riff, the 3rd chord is a bit hard
to do, but I didn't know how to do it, so if you find something more easy just let
everyone know...


intro (riff 1)
eb|------------------.-------------------|
Bb|--(0)---(0)---(0)-.--(0)---(0)---(0)--|
F#|--4-----4-----4---.--4-----4-----4----|
Db|--2-----2-----2---.--2-----2-----2----|
Ab|--2-----2-----2---.--2-----2-----2----|
Eb|----4-4---4-4---4-.----0-0---0-0---0--| repeat 2 times
[ Tab from: http://www.guitartabs.cc/tabs/j/jimmy_eat_world/kill_tab.html ]
verse
eb|------------------.------------------------------------.---------|
Bb|--(0)---(0)---(0)-.--(0)---(0)---(0)-------------------.---------|
F#|--4-----4-----4---.--4-----4-----4---------------------.--4--3---|
Db|--2-----2-----2---.--2-----2-----2---- repeat 3 times -.--4--4---|
Ab|--2-----2-----2---.--2-----2-----2---------------------.--2--1---|
Eb|----4-4---4-4---4-.----0-0---0-0---0-------------------.---------|


chorus:

   G#m      E   B       F#
Could it be that everything goes around by chance?  (chance)
G#m    E    B   F#
Or only one way that it was always meant to be?  (be...)
 G#m  E  B         F#      G#m
You kill me, you always know the perfect thing to say (hey hey, hey hey)
         E       B  F#   (riff 1)
I know what I should do but I just can't walk away...



middle:

eb|------2-----2---------2-----2------.------2-----2---------2-----2------|
Bb|----2-----2-----2---2-----2-----2--.----2-----2-----2---2-----2-----2--|
F#|--4-----4-----4---4-----4-----4----.--3-----3-----3---3-----3-----3----|
Db|-----------------------------------.-----------------------------------|
Ab|-----------------------------------.-----------------------------------|
Eb|-----------------------------------.-----------------------------------|

eb|-----------------------------------.-----------------------------------|
Bb|------2-----2---------2-----2------.------2-----2---------2-----2------|
F#|----4-----4-----4---4-----4-----4--.----4-----4-----4---4-----4-----4--|
Db|--6-----6-----6---2-----2-----2----.--4-----4-----4---4-----4-----4----|
Ab|-----------------------------------.-----------------------------------|
Eb|-----------------------------------.-----------------------------------|
Comments