Jimmy Eat World - Just Watch The Fireworks Chords & Tabs

 

Just Watch The Fireworks Chords & Tabs

Jimmy Eat World Chords & Tabs

Version: 2 Type: Tab 0 ratings
1 star 2 stars 3 stars 4 stars 5 stars
comments

Just Watch The Fireworks Tab

   
Artist:Jimmy Eat World
Album:Clarity
Author:Frank Sortelli
Song:Just Watch the Fireworks
Tuning:Drop-D Tuning (D A D G B E)
       Capo 4th fret

*nothing is put in as many times as it is played*
**EXP:the outro is not strumed as many times as written here. play the CD and listen**

Intro and Verse:
|-----------------------------------------------------------------|
|-----2-------2-------2-------2-------2-------2-------2-------2---|
|---2---2---2---2---2---2---2---2---2---2---2---2---2---2---2---2-|
|---------------------------------4-------4-------4-------4-------|
|-0-------0-------0-------0---------------------------------------|
|-----------------------------------------------------------------|

|-----0-------0-------0-------0-------0-------0-------0---|
|---3---3---3---3---3---3---3---3---3---3---3---3---3---3-|
|-2-------2-------2-------2-------2-------2-------2-------|
|---------------------------------------------------------|
|---------------------------------------------------------|
|---------------------------------------------------------|

Chorus:
Guitar 1
|-----------------------------------------------------------------|
|-----------------------------------------------------------------|
|-2-2-2-2-2-2-2-2-2-2-2-2-2-2-2-2-2-2-2-2-2-2-2-2-2-2-2-2-2-2-2-2-|
|-2-2-2-2-2-2-2-2-2-2-2-2-2-2-2-2-0-0-0-0-0-0-0-0-0-0-0-0-0-0-0-0-|
|-0-0-0-0-0-0-0-0-0-0-0-0-0-0-0-0-x-x-x-x-x-x-x-x-x-x-x-x-x-x-x-x-|
|---------------------------------4-4-4-4-4-4-4-4-4-4-4-4-4-4-4-4-|

|-----------------------------------------------------------------|
|-3-3-3-3-3-3-3-3-3-3-3-3-3-3-3-3-3-3-3-3-3-3-3-3-3-3-3-3-3-3-3-3-|
|-2-2-2-2-2-2-2-2-2-2-2-2-2-2-2-2-2-2-2-2-2-2-2-2-2-2-2-2-2-2-2-2-|
|-0-0-0-0-0-0-0-0-0-0-0-0-0-0-0-0-0-0-0-0-0-0-0-0-0-0-0-0-0-0-0-0-|
|-0-0-0-0-0-0-0-0-0-0-0-0-0-0-0-0-0-0-0-0-0-0-0-0-0-0-0-0-0-0-0-0-|
|-0-0-0-0-0-0-0-0-0-0-0-0-0-0-0-0-0-0-0-0-0-0-0-0-0-0-0-0-0-0-0-0-|
[ Tab from: http://www.guitartabs.cc/tabs/j/jimmy_eat_world/just_watch_the_fireworks_tab_ver_2.html ]
Guitar 2
|13-13-13-13-13-13-13-13-13-13---------------------------------------|
|-----------------------------13-13-13-13-13-13-13-13-13-13-13-13-13-|
|--------------------------------------------------------------------|
|--------------------------------------------------------------------|
|--------------------------------------------------------------------|
|--------------------------------------------------------------------|

|-------------------------------------16----16----16-|
|-------14----------14----------14-------------------|
|-13-13----13-13-13----13-13-13----13----13-----13---|
|----------------------------------------------------|
|----------------------------------------------------|
|----------------------------------------------------|


Bridge:
|-----------------------------------------|
|-----------------------------------------|
|-6-6-6-6-7-6-2-2-2-2-6-6-6-6-7-6-2-2-2-2-|
|-x-x-x-x-x-x-2-2-2-2-x-x-x-x-x-x-2-2-2-2-|
|-4-4-4-4-5-4-0-0-0-0-4-4-4-4-5-4-0-0-0-0-|
|-0-0-0-0-0-0---------0-0-0-0-0-0---------|

|-------------------------------------------------------|
|-------------------------------------------------------|
|-6-6-6-6-7-6-2-2-2-2-----------------------------------|
|-x-x-x-x-x-x-2-2-2-2-7-7-7-7-7-7-7-7-7-7-7-7-7-7-7-7---|
|-4-4-4-4-5-4-0-0-0-0-5-5-5-5-5-5-5-5-5-5-5-5-5-5-5-5---|
|-0-0-0-0-0-0---------5-5-5-5-5-5-5-5-5-5-5-5-5-5-5-5---|
                      *----------palm-muting------------|

Outro:
Guitar 1
|-----------------------------------------------------------------|
|-3-3-3-3-3-3-3-3-3-3-3-3-3-3-3-3-3-3-3-3-3-3-3-3-3-3-3-3-3-3-3-3-|
|-2-2-2-2-2-2-2-2-2-2-2-2-2-2-2-2-2-2-2-2-2-2-2-2-2-2-2-2-2-2-2-2-|
|-0-0-0-0-0-0-0-0-0-0-0-0-0-0-0-0-0-0-0-0-0-0-0-0-0-0-0-0-0-0-0-0-|
|-0-0-0-0-0-0-0-0-0-0-0-0-0-0-0-0-0-0-0-0-0-0-0-0-0-0-0-0-0-0-0-0-|
|-0-0-0-0-0-0-0-0-0-0-0-0-0-0-0-0-0-0-0-0-0-0-0-0-0-0-0-0-0-0-0-0-|

|---------------|
|---------------|
|-4-4-4-7-7-7-7-|
|-x-x-x-7-7-7-7-|
|-2-2-2-5-5-5-5-|
|-------5-5-5-5-|

Interlude/Outro 2:
|----------------------------------|
|----------------------------------|
|-6-6-6\7-9-9-9-9--6-6-6\7-2-2-2-2-|
|-x-x-x-x-x-x-x-x--x-x-x-x-x-x-x-x-|
|-4-4-4\5-7-7-7-7--4-4-4\5-0-0-0-0-|
|----------------------------------|

Ending:
|-------------|
|-------------|
|----------7--|
|-2--2--2--7--|
|-2--2--2--5--|
|-2--2--2--5--|
Comments