Jimmy Eat World - Just Watch The Fireworks Chords & Tabs

 

Just Watch The Fireworks Chords & Tabs

Jimmy Eat World Chords & Tabs

Version: 1 Type: Bass Tab 0 ratings
1 star 2 stars 3 stars 4 stars 5 stars
comments

Just Watch The Fireworks Bass Tab

"Just Watch the Fireworks" by Jimmy Eat World
Transcribed by Jon Ritts (BigEarl192000@yahoo.com)

Tuned in Drop D

1st Verse: (0:16)
G|--------|--------|--------|--------|--------|--------|--------|--------|
D|--------|--------|--------|--------|--------|--------|--------|--------|
A|-4------|--------|--------|--------|--------|--------|--------|--------|
D|--------|--------|-8------|--------|-4------|--------|--------|--------|

G|--------|--------|--------|--------|--------|--------|--------|--------|
D|--------|--------|--------|--------|--------|--------|--------|--------|
A|-4------|-4------|--------|--------|--------|--------|--------|--------|
D|--------|--------|-8------|--------|-4------|--------|--------|--------|

Chorus: (0:48)
G|-----------------|-----------------|-----------------|-----------------|
D|-----------------|-----------------|-----------------|-----------------|
A|-4-4-4-4-4-4-4-4-|-4-4-4-4-4-4-4-4-|-----------------|-----------------|
D|-----------------|-----------------|-8-8-8-8-8-8-8-8-|-8-8-8-8-8-8-8-8-|

G|-----------------|-----------------|-----------------|-----------------|
D|-----------------|-----------------|-----------------|-----------------|
A|-----------------|-----------------|-----------------|-----------------|
D|-4-4---4-4-4---4-|-4-4---4-4-4---4-|-4-4---4-4-4---4-|-4-4---4-4-4---4-|
 (play 2x)

2nd Verse: (1:20)
G|-----------------|-----------------|-----------------|-----------------|
D|-----------------|-----------------|-----------------|-----------------|
A|-4-4-4-4-4-4-4-4-|-4-4-4-4-4-4-4-4-|-----------------|-----------------|
D|-----------------|-----------------|-8-8-8-8-8-8-8-8-|-8-8-8-8-8-8-8-8-|

G|-----------------|-----------------|-----------------|-----------------|
D|-----------------|-----------------|-----------------|-----------------|
A|-----------------|-----------------|-----------------|-----------------|
D|-4-4-4-4-4-4-4-4-|-4-4-4-4-4-4-4-4-|-4-4-4-4-4-4-4-4-|-4-4-4-4-4-4-4-4-|
 (play 2x)

Play chorus 2x (1:52)
[ Tab from: http://www.guitartabs.cc/tabs/j/jimmy_eat_world/just_watch_the_fireworks_btab.html ]
Bridge: (2:24)
G|-----------------|-------------------|-----------------|-------------------|
D|-----------------|-------------------|-----------------|-------------------|
A|-6-6-6---6-6-6-6-|-------------------|-6-6-6---6-6-6-6-|-------------------|
D|-----------------|-4---4-4---4-4-4-4-|-----------------|-4---4-4---4-4-4-4-|

G|-----------------|-------------------|-----------------|-----------------|
D|-----------------|-------------------|-----------------|-----------------|
A|-6-6-6---6-6-6-6-|-------------------|-----------------|-----------------|
D|-----------------|-4---4-4---4-4-4-4-|-9-9-9-9-9-9-9-9-|-9-9-9-9-9-9-9-9-|
 (play 3x)

Fill 1: (3:12)
G|-----------------|-----------------|
D|-----------------|-----------------|
A|-----------------|-----------------|
D|-9-9-9-9-9-9-9-9-|-9-9-9-9-9-9-9-9-|

Play 2nd verse again 2x (3:16)
Play chorus 2x (3:48)
Play bridge 1x (4:20)
Play fill 1 1x (4:36)

Fill 2: (4:40)
G|-----------------|-----------------|-----------------|-----------------|
D|-----------------|-----------------|-----------------|-----------------|
A|-----------------|-----------------|-8---------------|-----------------|
D|-6---6---6---9---|-----------------|-----------------|-----------------|

2nd Bridge: (4:52)
G|-----------------|-----------------|-----------------|-----------------|
D|-----------------|-----------------|-----------------|-----------------|
A|-----------------|-----------------|-----------------|-----------------|
D|-6---6---6---9---|---9-9-9-9-9-9-9-|-4-4-4-4-4-4-4-4-|-4-4-4-4-4-4-4-4-|

G|-----------------|-----------------|
D|-----------------|-----------------|
A|-----------------|-----------------|
D|-4-4-4-4-4-4-4-4-|-4-4-4-4-4-4-4-4-| (play 6x)

Fill 3: (6:03)
G|-----------------|-----------------|
D|-----------------|-----------------|
A|-----------------|-----------------|
D|-6---6---6---9---|-----------------| (play 4x)

Outro: (6:20)
G|-----------------|-----------------|-----------------|-----------------|
D|-----------------|-----------------|-----------------|-----------------|
A|-----------------|-----------------|-----------------|-----------------|
D|-4-4-4-4-4-4-4-4-|-4-4-4-4-4-4-4-4-|-4-4-4-4-4-4-4-4-|-4-4-4-4-4-4-4-4-|
 (play 4x, but rest during 4th measure 2nd time through)

End with fill 3 1x
Comments