Jimmy Eat World - Just Tonight Chords & Tabs

 

Just Tonight Chords & Tabs

Jimmy Eat World Chords & Tabs

Version: 1 Type: Tab 0 ratings
1 star 2 stars 3 stars 4 stars 5 stars
comments

Just Tonight Tab

   
-------------------------------------------------------------------------------
			     Juts Tonight... - Jimmy Eat world
-------------------------------------------------------------------------------
Tabbed by:Colin Irving and Hamish Reilly
Email:colin383@msn.com and mutatedhamster@hotmail.com

Tuning:Db,Ab,Db,Gb,Bb,Eb.

Intro (gtr 1) - (gtr 2) plays the chorus along with intro.

e|----------------------------|
B|----------------------------|
G|-----2---2-----2-----2/4-2--|
D|-0-2---2---2-0---2-0--------| x3
A|----------------------------|
E|----------------------------|

e|-------------------------------|
B|-------------------------------|
G|-----2---2-----2-----2---2/4-2-|
D|-0-2---2---2-0---2-0---0-------|
A|-------------------------------|
E|-------------------------------|

Verse

e|------------------------------------------------------------|         |-------|               
B|------------------------------------------------------------|         |-------| Play this at  
G|------------------------------------------------------------|         |-------| the end of the
D|-3-3-3-3--3-3-3--3-3-3--3-3-3--0-0-0-0--0-0-0--0-0-0--0-0-0-| x3      |-5-5-5-| second bar in 
A|-3-3-3-3--3-3-3--3-3-3--3-3-3--0-0-0-0--0-0-0--0-0-0--0-0-0-|         |-5-5-5-| the verse.    
E|-3-3-3-3--3-3-3--3-3-3--3-3-3--0-0-0-0--0-0-0--0-0-0--0-0-0-|         |-5-5-5-|               
pm . . . . . . . . . . . . . . . . . . . . . . . . . . . . . . 	                                
								                                
e|---------------------------------------------------------------|                              
B|---------------------------------------------------------------|   (gtr 2) fades in 12        
G|---------------------------------------------------------------|   on the high e at the       
D|-3-3-3-3--3-3-3--3-3-3--3-3-3--2-2-2-2-2-2-2-2-2-2-2-2-2-2-2-2-|   end of the forth bar       
A|-3-3-3-3--3-3-3--3-3-3--3-3-3--2-2-2-2-2-2-2-2-2-2-2-2-2-2-2-2-|   in the verse.              
E|-3-3-3-3--3-3-3--3-3-3--3-3-3--2-2-2-2-2-2-2-2-2-2-2-2-2-2-2-2-|
pm . . . . . . . . . . . . . . .

Chorus (gtr 1)

e|-----------------------------------------------------------------|
B|-----------------------------------------------------------------|
G|-----------------------------------------------------------------|
D|-3-3-3-3-3-3-3-3-0-0-0-0-0-0-0-0-7-7-7-7-7-7-7-7-3-3-3-3-3-3-3-3-|
A|-3-3-3-3-3-3-3-3-0-0-0-0-0-0-0-0-7-7-7-7-7-7-7-7-3-3-3-3-3-3-3-3-|
E|-3-3-3-3-3-3-3-3-0-0-0-0-0-0-0-0-7-7-7-7-7-7-7-7-3-3-3-3-3-3-3-3-|

e|-----------------------------------------------------------------|
B|-----------------------------------------------------------------|
G|-----------------------------------------------------------------|
D|-3-3-3-3-3-3-3-3-0-0-0-0-0-0-5-5-7-7-7-7-7-7-7-7-7-7-7-7-7-7-7-7-| x2
A|-3-3-3-3-3-3-3-3-0-0-0-0-0-0-5-5-7-7-7-7-7-7-7-7-7-7-7-7-7-7-7-7-|
E|-3-3-3-3-3-3-3-3-0-0-0-0-0-0-5-5-7-7-7-7-7-7-7-7-7-7-7-7-7-7-7-7-|

(gtr 2) plays this over guitar 1 in the chorus. 

e|----------------------------------------------------|
B|---------------------------^---^--------------------|
G|-9---9--------9---9--------9---9--------9---9-------|
D|---7---7-5-7----7---7-5-7----7---7-5-7----7---7-5-7-|
A|----------------------------------------------------|
E|----------------------------------------------------|

e|----------------^----^--------------------------------------|
B|-10---10--------10---10--------10---10--------10---10-------|
G|----9----9-7-9-----9----9-7-9-----9----9-7-9-----9----9-7-9-|
D|------------------------------------------------------------|
A|------------------------------------------------------------|
E|------------------------------------------------------------|

Verse

e|------------------------------------------------------------|       |-------| 
B|------------------------------------------------------------|       |-------| Play this at
G|------------------------------------------------------------|       |-------| the end of the
D|-3-3-3-3--3-3-3--3-3-3--3-3-3--0-0-0-0--0-0-0--0-0-0--0-0-0-| x3    |-5-5-5-| second bar in 
A|-3-3-3-3--3-3-3--3-3-3--3-3-3--0-0-0-0--0-0-0--0-0-0--0-0-0-|       |-5-5-5-|	the verse.    
E|-3-3-3-3--3-3-3--3-3-3--3-3-3--0-0-0-0--0-0-0--0-0-0--0-0-0-|       |-5-5-5-|
 

e|---------------------------------------------------------------|  
B|---------------------------------------------------------------| (gtr 2) fades in 12 
G|---------------------------------------------------------------| on the high e at the
D|-3-3-3-3--3-3-3--3-3-3--3-3-3--2-2-2-2-2-2-2-2-2-2-2-2-2-2-2-2-| end of the forth bar
A|-3-3-3-3--3-3-3--3-3-3--3-3-3--2-2-2-2-2-2-2-2-2-2-2-2-2-2-2-2-| in the verse.       
E|-3-3-3-3--3-3-3--3-3-3--3-3-3--2-2-2-2-2-2-2-2-2-2-2-2-2-2-2-2-|

Chorus (gtr 1)

e|-----------------------------------------------------------------|
B|-----------------------------------------------------------------|
G|-----------------------------------------------------------------|
D|-3-3-3-3-3-3-3-3-0-0-0-0-0-0-0-0-7-7-7-7-7-7-7-7-3-3-3-3-3-3-3-3-|
A|-3-3-3-3-3-3-3-3-0-0-0-0-0-0-0-0-7-7-7-7-7-7-7-7-3-3-3-3-3-3-3-3-|
E|-3-3-3-3-3-3-3-3-0-0-0-0-0-0-0-0-7-7-7-7-7-7-7-7-3-3-3-3-3-3-3-3-|
[ Tab from: http://www.guitartabs.cc/tabs/j/jimmy_eat_world/just_tonight_tab.html ]
e|-----------------------------------------------------------------|
B|-----------------------------------------------------------------|
G|-----------------------------------------------------------------|
D|-3-3-3-3-3-3-3-3-0-0-0-0-0-0-5-5-7-7-7-7-7-7-7-7-7-7-7-7-7-7-7-7-| x2
A|-3-3-3-3-3-3-3-3-0-0-0-0-0-0-5-5-7-7-7-7-7-7-7-7-7-7-7-7-7-7-7-7-|
E|-3-3-3-3-3-3-3-3-0-0-0-0-0-0-5-5-7-7-7-7-7-7-7-7-7-7-7-7-7-7-7-7-|

(gtr 2) plays this over guitar 1 in the chorus. 

e|----------------------------------------------------|
B|---------------------------^---^--------------------|
G|-9---9--------9---9--------9---9--------9---9-------|
D|---7---7-5-7----7---7-5-7----7---7-5-7----7---7-5-7-|
A|----------------------------------------------------|
E|----------------------------------------------------|

e|----------------^----^--------------------------------------|
B|-10---10--------10---10--------10---10--------10---10-------|
G|----9----9-7-9-----9----9-7-9-----9----9-7-9-----9----9-7-9-|
D|------------------------------------------------------------|
A|------------------------------------------------------------|
E|------------------------------------------------------------|

Interlude (gtr 1) plays chorus palm muted x2

(gtr 2) plays this over gtr1 in the interlude.

e|-0-------------------------------------------------|
B|-0--5-----------5-5----------5-5-----5-5-5-2--5-5-2|
G|-0-----4-2-4-2------4-2-4-2------4-2---------------|
D|-0-------------------------------------------------|
A|-0-------------------------------------------------|
E|-0-------------------------------------------------| 

Solo 

e|-0-----------------------------------------------------------|
B|-0--^----------^---------------------------------------------|
G|-0--2----------2-------^-------------------------------------|
D|-0----2-0-2------2-0-2-2-------------------------------------|
A|-0----------0-------------3-3-2-3-3-2-3-3-2-3-3-5/15\0--0-0-0|
E|-0-----------------------------------------------------------|

e|--------------------------------------------------------|
B|--^----------^------------------------------------------|
G|--2----------2-------^----------------------------------|
D|---2-0-2------2-0-2-2-------------------------------^-^-|
A|--------0-------------3-3-2-3-3-2-3-3-2-3-3-5/15\4--4-4-|
E|--------------------------------------------------------|

Chorus (gtr 1)

e|-----------------------------------------------------------------|
B|-----------------------------------------------------------------|
G|-----------------------------------------------------------------|
D|-3-3-3-3-3-3-3-3-0-0-0-0-0-0-0-0-7-7-7-7-7-7-7-7-3-3-3-3-3-3-3-3-|
A|-3-3-3-3-3-3-3-3-0-0-0-0-0-0-0-0-7-7-7-7-7-7-7-7-3-3-3-3-3-3-3-3-|
E|-3-3-3-3-3-3-3-3-0-0-0-0-0-0-0-0-7-7-7-7-7-7-7-7-3-3-3-3-3-3-3-3-|

e|-----------------------------------------------------------------|
B|-----------------------------------------------------------------|
G|-----------------------------------------------------------------|
D|-3-3-3-3-3-3-3-3-0-0-0-0-0-0-5-5-7-7-7-7-7-7-7-7-7-7-7-7-7-7-7-7-| x2
A|-3-3-3-3-3-3-3-3-0-0-0-0-0-0-5-5-7-7-7-7-7-7-7-7-7-7-7-7-7-7-7-7-|
E|-3-3-3-3-3-3-3-3-0-0-0-0-0-0-5-5-7-7-7-7-7-7-7-7-7-7-7-7-7-7-7-7-|

(gtr 2) plays this over guitar 1 in the chorus. 

e|----------------------------------------------------|
B|---------------------------^---^--------------------|
G|-9---9--------9---9--------9---9--------9---9-------|
D|---7---7-5-7----7---7-5-7----7---7-5-7----7---7-5-7-|
A|----------------------------------------------------|
E|----------------------------------------------------|

e|----------------^----^--------------------------------------|
B|-10---10--------10---10--------10---10--------10---10-------|
G|----9----9-7-9-----9----9-7-9-----9----9-7-9-----9----9-7-9-|
D|------------------------------------------------------------|
A|------------------------------------------------------------|
E|------------------------------------------------------------|

(gtr 1)

e|-----------------------------------------------------------------|
B|-----------------------------------------------------------------|
G|-----------------------------------------------------------------|
D|-3-3-3-3-3-3-3-3-0-0-0-0-0-0-0-0-7-7-7-7-7-7-7-7-3-3-3-3-3-3-3-3-|
A|-3-3-3-3-3-3-3-3-0-0-0-0-0-0-0-0-7-7-7-7-7-7-7-7-3-3-3-3-3-3-3-3-|
E|-3-3-3-3-3-3-3-3-0-0-0-0-0-0-0-0-7-7-7-7-7-7-7-7-3-3-3-3-3-3-3-3-|

e|-----------------------------------------------------------------|
B|-----------------------------------------------------------------|
G|-----------------------------------------------------------------|
D|-3-3-3-3-3-3-3-3-0-0-0-0-0-0-5-5-7-7-7-7-7-7-7-7-7-7-7-7-7-7-7-7-| x2
A|-3-3-3-3-3-3-3-3-0-0-0-0-0-0-5-5-7-7-7-7-7-7-7-7-7-7-7-7-7-7-7-7-|
E|-3-3-3-3-3-3-3-3-0-0-0-0-0-0-5-5-7-7-7-7-7-7-7-7-7-7-7-7-7-7-7-7-|

(gtr 2)

e|----------------------------|
B|----------------------------|
G|-----2---2-----2-----2/4-2--|
D|-0-2---2---2-0---2-0--------| x3
A|----------------------------|
E|----------------------------|

e|-------------------------------|
B|-------------------------------|
G|-----2---2-----2-----2---2/4-2-|
D|-0-2---2---2-0---2-0---0-------|
A|-------------------------------|
E|-------------------------------|

Order:
Intro
Verse
Chorus
Verse
Interlude
Solo
Chorus
Chorus/Intro


^ - Bend.
/ - Slide Up.
\ - Slide down.
pm . - Palm muted.
Comments