Jimmy Eat World - If You Dont Dont Chords & Tabs

 

If You Dont Dont Chords & Tabs

Jimmy Eat World Chords & Tabs

Version: 1 Type: Bass Tab 0 ratings
1 star 2 stars 3 stars 4 stars 5 stars
comments

If You Dont Dont Bass Tab

Song: If You Don't, Don't
Band: Jimmy Eat World
Disc: Bleed American
matt@indietabs.net 1/12/02

Each note below is 4 notes... Drop D tuning

Part 1
G-------------------------------------------------------------
D-------------------------------------------------------------
A-4---4---4---4----------------4---4---4---4---4--------------
D----------------4---4---4---4------------------4---4---4---4-

Part 2
G------------------------------------------------------------
D------------------------------------------------------------
A-1---1---1---1----------------4---4---4---4-----------------
D---------------4---4---4---4----------------6---6---6---6---

[ Tab from: http://www.guitartabs.cc/tabs/j/jimmy_eat_world/if_you_dont_dont_btab.html ]
Part 3
G---------------------------------------------------
D---------------------------------------------------
A---------------------------------------------------
D-4----4----6----6----3----3----4----4--------------

Part 4
G--------------------
D--------------------
A--------------------
D-4----4----6----6---

Bridge
G---------------------------------------------------
D---------------------------------------------------
A--4----------4-------------------------------------
D----------------------4------------4---------------Part 1 X 2
Part 2
Part 1 X 2
Part 2
Part 3 X 3
Part 4
Part 1 X 2
Part 2
Part 3 X 3
Part 4 X 2
Bridge X 4
Part 1 X 4
Part 2
Part 3 X 3
Bridge
Comments