Jimmy Eat World - Goodbye Sky Harbor Chords & Tabs

 

Goodbye Sky Harbor Chords & Tabs

Jimmy Eat World Chords & Tabs

Version: 1 Type: Tab 0 ratings
1 star 2 stars 3 stars 4 stars 5 stars
comments

Goodbye Sky Harbor Tab

   
Goodbye Sky Harbor
Jimmy Eat World

VERSE\INTRO      | 
Guitar 1        [v start here on second verse]  
e|--------------------------------------------------------|
B|--------------------------------------------------------|
G|-------------1111-1111-1111-1111-1111-1111-1111-1111-11-|
D|-9-9-7-9-9-7-x-x--x-x--x-x--x-x--x-x--x-x--x-x--x-x--x--|
A|-9-9-7-9-9-7-9-9--9-9--9-9--9-9--9-9--9-9--9-9--9-9--9--|
D|-9-9-7-9-9-7-0-0--0-0--0-0--0-0--0-0--0-0--0-0--0-0--0--|

e|-------------------------------------------------------|
B|-------------------------------------------------------|
G|-------------7-7--7-7--7-7--7-7--7-7--7-7--7-7--7-7--7-|
D|-9-9-7-9-9-7-x-x--x-x--x-x--x-x--x-x--x-x--x-x--x-x--x-| 3x
A|-9-9-7-9-9-7-5-5--5-5--5-5--5-5--5-5--5-5--5-5--5-5--5-|
D|-9-9-7-9-9-7-0-0--0-0--0-0--0-0--0-0--0-0--0-0--0-0--0-|
e|-------------------------------------------------------|
B|-------------------------------------------------------|
G|-------------------------------------------------------|
D|-9-9-7-9-9-7-5-5--5-5--5-5--5-5--5-5--5-5--5-5--5-5--5-|
A|-9-9-7-9-9-7-5-5--5-5--5-5--5-5--5-5--5-5--5-5--5-5--5-|
D|-9-9-7-9-9-7-5-5--5-5--5-5--5-5--5-5--5-5--5-5--5-5--5-|

e|---------------| 
B|---------------| 
G|---------------| 
D|-9-9-7-9-9-7-9-| 
A|-9-9-7-9-9-7-9-| 
D|-9-9-7-9-9-7-9-| 

Guitar 2
e|-5-4-5---|
B|-------3-|
G|---------|
D|---------|
A|---------|
D|---------|

CHORUS 
some keyboard bit plays here too
Guitar 1 chords
e|-----------------------------------------------------------------| 
B|-------3-3-3-3-3-3-3-3-3-3-3-3-3-------3-3-3-3-3-----------------| 
G|-4-4-4-2-2-2-2-2-0-0-0-2-2-2-2-2-4-4-4-2-2-2-2-2-----------------| 
D|-4-4-4-0-0-0-0-0-0-0-0-0-0-0-0-0-4-4-4-0-0-0-0-0-7-7-7-7-7-7-7-7-| 
A|-2-2-2-0-0-0-0-0-x-x-x-0-0-0-0-0-2-2-2-0-0-0-0-0-7-7-7-7-7-7-7-7-| 
D|-------0-0-0-0-0-5-5-5-0-0-0-0-0-------0-0-0-0-0-7-7-7-7-7-7-7-7-| 
[ Tab from: http://www.guitartabs.cc/tabs/j/jimmy_eat_world/goodbye_sky_harbor_tab.html ]
BRIDGE
Guitar 1
e|------------------------------------------------------| 
B|------------------------------------------------------| 
G|-------1111-1111-11-------1111111111-------1111111111-| 
D|-9-9-9-x-x--x-x--x--9-9-9-x-x-x-x-x--9-9-9-x-x-x-x-x--| 
A|-9-9-9-9-9--9-9--9--9-9-9-9-9-9-9-9--9-9-9-9-9-9-9-9--| 
D|-9-9-9-0-0--0-0--0--9-9-9-0-0-0-0-0--9-9-9-0-0-0-0-0--| 

e|---------------------------------| 
B|---------------------------------| 
G|-------9-9-9-9-9-------9-9-9-9-9-| 
D|-------x-x-x-x-x-------x-x-x-x-x-| 
A|-------7-7-7-7-7-------7-7-7-7-7-| 
D|-7-7-7-0-0-0-0-0-7-7-7-0-0-0-0-0-| 

OUTRO
Guitar 1
E|---------------------------------------------------------------------------------| 
B|---------------------------------------------------------------------------------| 
G|-------------------------------------------------------2-2-2-2-2-------2-2-2-2-2-| 
D|-9-9-9-0-0-0-0-0-9-9-9-0-0-0-0-0-9-9-9-0-0-0-0-0-7-7-7-0-0-0-0-0-7-7-7-0-0-0-0-0-| 
A|-9-9-9-0-0-0-0-0-9-9-9-0-0-0-0-0-9-9-9-0-0-0-0-0-7-7-7-0-0-0-0-0-7-7-7-0-0-0-0-0-| 
D|-9-9-9-0-0-0-0-0-9-9-9-0-0-0-0-0-9-9-9-0-0-0-0-0-7-7-7-0-0-0-0-0-7-7-7-0-0-0-0-0-| 

Guitar 2
e|-5-4-5---5---5---| 
B|-------5---3---2-| 
G|-----------------| 
D|-----------------| 
A|-----------------| 
D|-----------------| 

Guitar 3
e|----------------|
B|----------------|
G|-9-9---7---6----|
D|-----0---0------|
A|----------------|
D|----------------|

STRUCTURE AND LYRICS

INTRO
VERSE

is tomorrow just a day like all the rest' 
(how could you know just what you did?) 
like all the rest 
(how could you know just what you did?) 
so full of faith yet full of doubt i ask 

CHORUS

again 
i shall ask you this once again 
he said: 'i am but one small instrument' 
do you remember that? 

VERSE

time and time again you said don't be afraid 
('if you believe then you can do it') 
don't be afraid 
('if you believe then you can do it') 
the only voice i want to hear is yours 

CHORUS

again 
i shall ask you this once again 
he said: 'i am but one small instrument' 

BRIDGE

so here i am above palm trees so straight and tall 
you are smaller, getting smaller 
but i still see you 

OUTRO 
 
ShawnyM1010@Hotmail.com
Comments