Jimmy Eat World - Get It Faster Chords & Tabs

 

Get It Faster Chords & Tabs

Jimmy Eat World Chords & Tabs

Version: 9 Type: Tab 0 ratings
1 star 2 stars 3 stars 4 stars 5 stars
comments

Get It Faster Tab

   
Tabbed by:  Mike M
Email:  dumpweed15@hotmail.com

Tuning: drop d       version 2 of this song is good but the solo is off
so heres my version of the solo
[ Tab from: http://www.guitartabs.cc/tabs/j/jimmy_eat_world/get_it_faster_tab_ver_9.html ]
e|---------------------------------------------------------------------------
B|---------------------------------------------------------------------------
G|--------3---------3-3-------3--------3-3------3--3-2-0-2-------2-2h3-0-0---
D|---------------------------------------------------------------------------
A|----5-5-----5-5-5-------1-1----1-1-1-------3-3--3-----------0-0------------
E|----5-5-----5-5-5-------1-1----1-1-1-------3-3--3-----------0-0------------
      
 guitar 2
 part here 
e|-------------------------------------11-11---------------------------------
B|--------11--------11-11-----11-------11-11----11-11-10-8-10---10-10h11-8---
G|---------------------------------------------------------------------------
D|---------------------------------------------------------------------------
A|---------------------------------------------------------------------------
E|---------------------------------------------------------------------------
                                                                  x4            
   
       palm mute the power chords slightly the first 2 times played


| /  slide up
| \  slide down
| h  hammer-on
| p  pull-off
| ~  vibrato
| +  harmonic
| x  Mute note

===============================================================================
Comments