Jimmy Eat World - Get It Faster Chords & Tabs

 

Get It Faster Chords & Tabs

Jimmy Eat World Chords & Tabs

Version: 5 Type: Tab 0 ratings
1 star 2 stars 3 stars 4 stars 5 stars
comments

Get It Faster Tab

#----------------------------------PLEASE NOTE---------------------------------#
#This file is the author's own work and represents their interpretation of the #
#song. You may only use this file for private study, scholarship, or research. #
#------------------------------------------------------------------------------#

Band/Artist: Jimmy Eat World
Song:Get It Faster
Album: Jimmy Eat World (Previously Bleed Amererican)
Tabbed By Adam Taylor
AlienOffspring@Hotmail.com (Previously Infernocaliber@hotmail.com)

This Is My Second Tab But I got A Ton Of emails Sayin' How great the last one was so,
I'm Hoping this ones as god as the last one.

Symbol Shit:

/ : Slide Up
\ : Slide Down
* : Palm Mute
+ : Finger Mute (Lift fingers of note slightly to get a scratch sound)
> : Play 7 more times
# : Hold Note
P : Pull Off
H : Hammer On

Guitar 1 : Drop D Tuning
Guitar 2 : Drop D Tuning

Intro: (Clean) Wierd Mechanical Sounds
(Bass Aranged For Guitar) 

e|------------------|
B|------------------|
G|------------------|
D|------------------|
A|------------------|
D|--5>--8>--3>--1>--| X4

e|------------------|
B|------------------|
G|------------------|
D|--5>--8>--3>--1>--|
A|--5>--8>--3>--1>--|
D|--5>--8>--3>--1>--| X4
    **  **  **  **

Verse 1 : Guitar 1 Clean

e|------------------|                                  
B|------------------|                                  
G|------------------|                                  
D|--5>--8>--3>--1>--|                                  
A|--5>--8>--3>--1>--|                                   
D|--5>--8>--3>--1>--| X2                                
    **  **  **  **

Chorous : Guitar 1 Distortion

e|---------------------------------------------------| 
B|---------------------------------------------------| 
G|---------------------------------------------------| 
D|--5>--8>--3>--1>----5>--8>--3>--1-1-1-1--8-8--3-3--| 
A|--5>--8>--3>--1>----5>--8>--3>--1-1-1-1--8-8--3-3--| 
D|--5>--8>--3>--1>----5>--8>--3>--1-1-1-1--8-8--3-3--| 

Verse 2 : Guitar 1 Clean

e|------------------|                             
B|------------------|                                   
G|------------------|                                   
D|--5>--8>--3>--1>--|                                   
A|--5>--8>--3>--1>--|                                   
D|--5>--8>--3>--1>--| X2                               
    **  **  **  **

Chorous : Guitar 1 Distortion

B|---------------------------------------------------| 
G|---------------------------------------------------| 
D|--5>--8>--3>--1>----5>--8>--3>--1-1-1-1--8-8--3-3--| 
A|--5>--8>--3>--1>----5>--8>--3>--1-1-1-1--8-8--3-3--| 
D|--5>--8>--3>--1>----5>--8>--3>--1-1-1-1--8-8--3-3--| 
                                                   x2

Chorus : Guitar 2 Distortion

e|--3>--6>--1>------|
B|--3>--6>--1>--4>--|
G|--------------3>--|
D|------------------|
A|------------------|
D|------------------|

Cool Deul Guitar Bit : 2 Guitars Aranged For 1 Dist
[ Tab from: http://www.guitartabs.cc/tabs/j/jimmy_eat_world/get_it_faster_tab_ver_5.html ]
e|----------------------------------------------------------------------------------------|
B|------3---------33-----3---------44------3----3p1-----1-----1-------1h3-----------------|
G|------3---------33-----3---------33------3----3p2-----2-----2-------2h3--3-3------------|
D|--5-5----5-5-5-----1-1----1-1-1-----3-3----3-------3-----0-0-------------4-4------------|
A|--5-5----5-5-5-----1-1----1-1-1-----3-3----3-------3-----0-0----------------------------|
D|--5-5----5-5-5-----1-1----1-1-1-----3-3----3-------3-----0-0-----0----------------------| x2
                                                                   *  

e|------10------10-10----10------11-11----10---10\8-----8------8------8h10-6-6------------|
B|------11------11-11----11------11-11----11---11\10----10-----10----10h11-8-8------------|
G|----------------------------------------------------------------------------------------|
D|--5-5----5-5-5-----1-1----1-1-1-----3-3----3-------3-----0-0----------------------------|
A|--5-5----5-5-5-----1-1----1-1-1-----3-3----3-------3-----0-0----------------------------|
D|--5-5----5-5-5-----1-1----1-1-1-----3-3----3-------3-----0-0-----0----------------------| x2
                                                                   *

Interlude : Guitar 1 Clean

e|---------------------------------------------|
B|---------------------------------------------|
G|---------------------------------------------|
D|--5>--8>--3>--1>----5>--8>--3>--1-1-1-1-1-1--|
A|--5>--8>--3>--1>----5>--8>--3>--1-1-1-1-1-1--|
D|--5>--8>--3>--1>----5>--8>--3>--1-1-1-1-1-1--|
    **  **  **  **    **  **  **  * * * * * # --8>--3>--1>----5>--8>--3>--1>----|      
A|--5>--8>--3>--1>----5>--8>--3>--1>----|              
D|--5>--8>--3>--1>----5>--8>--3>--1>----|               
    **  **  **  **    **  **  **  **    

e|--------------------------------------|               
B|--------------------------------------|            
G|--------------------------------------|    
D|----5>--8>--3>--1>----5>--8>--3>--1>--|               
A|----5>--8>--3>--1>----5>--8>--3>--1>--|              
D|----5>--8>--3>--1>----5>--8>--3>--1>--|             
      **  **  **  **    **  **  **  **
      ________________________________--8>--3>--1>----5>--8>--3>--1-1-1-1--8-8--3-3--|  Out,Out
A|--5>--8>--3>--1>----5>--8>--3>--1-1-1-1--8-8--3-3--| 
D|--5>--8>--3>--1>----5>--8>--3>--1-1-1-1--8-8--3-3--| 

e|---------------------------------------------------|  Out,Out
B|---------------------------------------------------| 
G|---------------------------------------------------| 
D|--5>--8>--3>--1>----5>--8>--3>--1-1-1-1--8-8--3-3--| 
A|--5>--8>--3>--1>----5>--8>--3>--1-1-1-1--8-8--3-3--| 
D|--5>--8>--3>--1>----5>--8>--3>--1-1-1-1--8-8--3-3--| 
                                                  
Chorus : Guitar 2 Distortion

e|--3>--6>--1>------|
B|--3>--6>--1>--4>--|
G|--------------3>--|
D|------------------|
A|------------------|
D|------------------| X2

end on

e|-------|
B|-------|
G|-------|
D|--5-5--|
A|--5-5--|
D|--5-5--|
Comments