Jimmy Eat World - Get It Faster Chords & Tabs

 

Get It Faster Chords & Tabs

Jimmy Eat World Chords & Tabs

Version: 4 Type: Tab 0 ratings
1 star 2 stars 3 stars 4 stars 5 stars
comments

Get It Faster Tab

artist-jimmy eat world
song-get it faster
album-bleed american
SUBMITTED BY AIDAN CAMPBELL

DROP D TUNING

INTRO AND VERSE
E-------------------------------------------
B-------------------------------------------
G-------------------------------------------
D-------------------------------------------
A-------------------------------------------
E-55555555-88888888-33333333-11111111-------

[ Tab from: http://www.guitartabs.cc/tabs/j/jimmy_eat_world/get_it_faster_tab_ver_4.html ]
CHORUS
E----------------------------------------------------
B----------------------------------------------------
G----------------------------------------------------
D---5---8---3---1------------------------------------
A---5---8---3---1------------------------------------
E---5---8---3---1------------------------------------

WORK OUT THE STRUMMING UR-SELF


COOL DOUBLE GUITAR BIT

GUITAR 1
E------------------------------------------
B------------------------------------------
G------------------------------------------
D--55-555--11-111-33-3-3-00----------------
A--55-555--11-111-33-3-3-00----------------
E--55-555--11-111-33-3-3-00-000------------


FINISHES ON
E-----
B-----
G-----
D-----
A-55--
E-55--

THIS IS DEFIENTLY IT.ENJOY!!!!!!!!!!!!1











Comments