Jimmy Eat World - Get It Faster Chords & Tabs

 

Get It Faster Chords & Tabs

Jimmy Eat World Chords & Tabs

Version: 10 Type: Tab 0 ratings
1 star 2 stars 3 stars 4 stars 5 stars
comments

Get It Faster Tab

   
===================================
Dropped D tuning (D, A, D, G, B, E)


   pm = Palm Mute
    x = Mute String
    " = Tremolo picking
    s = Slide (pick notes before and after)
    h = Hammer-on
    v = Vibrato
    b = Bend string
    H = Half Bend
    F = Full Bend
    ^ = Hold Bend
    * = Don't Push Down All The Way With Fretting Hand




This is actually two guitars playing at once but you can play them both 
by yourself if you want to


Guitar 1
[ Tab from: http://www.guitartabs.cc/tabs/j/jimmy_eat_world/get_it_faster_tab_ver_10.html ]
e|----------------------------------------------------------|  |
B|----3-----3-3----3-----4-4----3---3-1---1----1----1-3-----|  |
G|------------------------------------------------------3-3-|  |
d|----------------------------------------------------------|x4|
A|----------------------------------------------------------|  |
D|----------------------------------------------------------|  |

Guitar 2

e|----------------------------------------------------------|  |
B|----------------------------------------------------------|  |
G|----------------------------------------------------------|  |
d|----------------------------------------------------------|x4|
A|-55---555-----11---111-----33---3-----3---00---0*---------|  |
D|-55---555-----11---111-----33---3-----3---00---0*---------|  |
Comments