Jimmy Eat World - Get It Faster Chords & Tabs

 

Get It Faster Chords & Tabs

Jimmy Eat World Chords & Tabs

Version: 1 Type: Tab 1 rating
1 star 2 stars 3 stars 4 stars 5 stars
comments

Get It Faster Tab

Tuning: Drop D (DADGBE)

 Intro/Verse

 |---------------------------------------------------------------------|
 |---------------------------------------------------------------------|
 |---------------------------------------------------------------------|    Repeated
 |---------------------------------------------------------------------|
 |---------------------------------------------------------------------|
 |--5-5-5-5-5-5-5-5--8-8-8-8-8-8-8-8-3--3-3-3-3-3-3-3--1-1-1-1-1-1-1-1-|

 Chorus
[ Tab from: http://www.guitartabs.cc/tabs/j/jimmy_eat_world/get_it_faster_tab.html ]
 |-----------------------------------------------------|
 |-----------------------------------------------------|
 |-----------------------------------------------------|     Repeated
 |--77777777--1010101010101010--55555555--33333333-----|
 |--77777777--1010101010101010--55555555--33333333-----|
 |--55555555---8-8-8-8-8-8-8-8--33333333--11111111-----|

 Bridge/Interlude

 |-------------------------------------------|
 |-------------------------------------------|
 |-------------------------------------------|
 |--77-7-77--33-3-33--55-55-5-00-00-0--------|
 |--77-7-77--33-3-33--55-55-5-00-00-0--------|
 |--55-5-55--11-1-11--33-33-3-00-00-0--------|

 Ending

 This is the chrous ending on
 |--------|
 |--------|
 |--------|
 |---77---|
 |---77---|
 |---55---|
Comments