Jimmy Eat World - Futures Chords & Tabs

 

Futures Chords & Tabs

Jimmy Eat World Chords & Tabs

Version: 2 Type: Tab 0 ratings
1 star 2 stars 3 stars 4 stars 5 stars
comments

Futures Tab

   
-------------------------------------------------------------------------------
			     Futures - Jimmy Eat World
-------------------------------------------------------------------------------
Tabbed by:  benwahballs
Email:  lasbdo@yahoo.com

Tuning: Drop D (DADGBe)  ( And for those that don't know... you just tune the top E
string down two steps).

I WENT ALL OUT ON THIS...MY FIRST TAB


Intro1-Guitar1-distorted 
Intro1-Guitar2-distorted 
Intro1-Guitar3-distorted
Verse1-Guitar1 distorted
Verse1-Guitar2-distorted
Verse1-Guitar3-distorted
Verse1-Guitar4-distorted
Chorus1-Guitar1-distorted
Chorus1-Guitar2-distorted (this one doesn't really matter, but I say distorted)
Verse2-Guitar1-distorted
Verse2-Guitar2-distorted
Verse2-Guitar3-distorted
Verse2-Guitar4-distorted
Chorus2-Guitar1-distorted
Chorus2-Guitar2-distorted (this one doesn't really matter, but I say distorted)
Bridge-Guitar1-distorted
Bridge Guitar2-distorted
Bridge-Guitar3-distorted
Bridge-Guitar4-acoustic (this one doesn't really matter, but I say acoustic)
Bridge-Guitar5-xylaphone
Bridge-Guitar6-acoustic
Chorus3-Guitar1-distorted
Chorus3-Guitar2-distorted
Chorus3-Guitar3-distorted

_____________________________________________________________________________
YOU DONT HAVE TO READ THE NOTES!!!!
YOU DONT HAVE TO READ THE NOTES!!!!
YOU DONT HAVE TO READ THE NOTES!!!!
YOU DONT HAVE TO READ THE NOTES!!!!
YOU DONT HAVE TO READ THE NOTES!!!!
YOU DONT HAVE TO READ THE NOTES!!!!
_____________________________________________________________________________

Notes:I tried the other versions intro for an hour trying to figure out whats
wrong and its christmas eve right now. But it here you go. My first tab...

Notes: THE INTRO CAN BE DIVIDED INTO 4 PARTS (measures) WHICH IS WHAT I DID!
THE MEASURE IS SHOWN ABOVE THE BOXY THINGY!

NOTES - FOR ALL OF THE 4 MEASURES OF THE INTRO WITH GUITAR 2 AND 3, YOU CAN
TRY HITTING EACH NOTE MORE TIMES THAN I HAVE PUT THEM IF THAT SOUNDS A BIT
MORE AGGRESSIVE, YOU KNOW.( YOU CAN DO THIDS FOR THE TWO INTROS BEFORE BOTH
VERSES, THE 1 MEASURE OF A CHORUS IN THE BRIDGE, AND THE ONE INTO IN THE LAST
CHORUS.) 

NOTES: If u have noticed in, measure 2 guitar 2 OF THE INTRO , there is a
slidind down on the high E(or in this case it would be the D because the tuning
is drop D) string form 13 to 1 AT THE END OF THAT PART. THIS MITE BE HARD SO......)
(instead of the  top string D|--13\1---|  u can do on the A string slide A|--6\1---| 
or) (even easier... you can do this) 
(e|------------------------------------------------------------------------|)
(B|------------------------------------------------------------------------|)
(G|------------------------------------------------------------------------|)
(D|-1-----------( or even MORE easier do this )-----1-----(or)--1---(or)---|)
(A|----1--------------------------------------------1----------------------|)
(D|--------1----------------------------------------1--------------------1-|)
(STICK WHAT I HAVE IF YOU CAN... I WAS JUST PLAYING AROUND FINDING STUFF THAT
COULD ALTERNATE... KEEP IN MY MIND THIS WHOLE NOTE WAS FOR JUST ONE NOTE AT
THE END OF INTRO PART 2 GUITAR 2......  XD LOL AND ITS 2:04 AM now technically
on Christmas day cause its past midnight XD) THE OTHER VERSION INTOR WAS A BIT
DIFFERENT FROM MINE AND IN THE OTHER VERSION, THE INTRO IS WRONG BUT IN THAT
VERSION IT WOULD BE EASIER TO DO THIS SLIDING THING ABOVE, SO YOU CAN TRY THIS
AS AN INTRO FOR GUITAR 2... IT WOULD MAKE IT EASIER FOR THE 13/1 SLIDE
e|-----------------------------------------------------------------|
B|-----------------------------------------------------------------|
G|-----------------------------------------------------------------|
D|------------------------6--5-------------------------------------|
A|--------------6-----8----------6-----6---------------------------|
D|-1-1-x-----------8----------------8------------------------------|

AND YOU WONT HAVE TO CHANGE THE INTRO GUITAR 3 BECAUSE THE 13/1 SLIDE IS
ONLY ON MEASURE 2 BUT ILL GIVE YOU AN ALTERNATE WAY OF PLAYING THE INTRO
WITH GUITAR 3...
e|------------------1---4---3--------------------------------------|
B|---------4-------------------4-----4-----------------------------|
G|-------------3------------------3--------------------------------|
D|---1-1-----------------------------------------------------------|
A|-----------------------------------------------------------------|
D|-----------------------------------------------------------------|
STICK TO WHAT I HAVE IS MY SUGGESTION. YOU DON'T HAVE TO READ THESE NOTES

NOTE: GUITAR 3 IN THE INTRO PLAYS WHAT I PUT DOWN, HOWEVER, if u want
for a guitar 3, you can have guitar 3's INTRO (WHICH IS MEASURES 3 AND 4) be
the same as guitar 2's MEASURES OF 3 AND 4. This is because guitar 3 plays
the guitar 2 riff exactly 12 frets higher and as you might know... when two
notes are 12 frets away from eachother, they are the same note just one is
higher or lower than the other... they sound the same.

(Note): the first verse is divided into twelve measures. I showed the timing
with the words. The first verse to me is from  "I always believed in futures....."
to ".....how long until this affects me?"   Or just look on the bottom where the
lyrics are.

(NOTE! GUITAR 2 ON VERSE 1 IS VERY DISTORTED AND LOW AT THE SAME TIME... YOU)
(KNOW KINDA LIKE MAYBE YOU PUT THE BASE DOWN BUT THE DISTORTION REALLY HIGH OR)
(MAYBE THE TREBLE HIGH OR THE OVERDRIVE HIGH OR WHATEVER IT IS. 

(NOTE- VERSE 1 HAS 12 MEASURES IN IT,(just like VERSE 2). GUITAR 3 ONLY STARTS
PLAYING ON THE LAST 4 MEASURES OF VERSE 1 WHEN JIM SAYS "HEY NOW" BUT ILL SHOW
YOU THE BLANK PARTS ANYWAY ANY WAY)

NOTE-I BELIEVE GUITAR 4 ONLY PLAYS ONE NOTE AT THE END OF VERSE 1 AND IM SHOWING
IT ANY WAY. I CAN TELL THAT THIS MIGHT BE ANOTHER GUITAR CAUSE IT'LL COME IN MORE
ON VERSE 2

NOTE: IN ONLY  CHORUSES 1 AND 2. FOR THE FIRST THREE MEASURE (THERE IS 4 IN ALL)
I THINK GUITAR 3 JUST PLAYS THE SAME NOTES THAT JIM IS SINGING SO THAT'S WHAT I
PUT, BUT THE GUITAR SOUNDS REALLY LOW UNTIL JIM STARTS SINGING "THE STREETS"(WHICH
IS WHEN THE GUITAR DOES SOMETHING ELSE THAN FROM WHAT JIM IS SINGING I THINK). I
HAVE TO BE RIGHT XP

(NOTE- YOU MAY WANT TO PLAY AROUND WITH THE NOTES ON VERSE 2 GUITAR 4 WITH THE NOTE
ON THE 16th FRET, YOU KNOW LIKE CHANGE THE TIMING OR THE AMOUNT OF TIMES YOU HIT IT
OR EVEN PALM MUTE SOME OF THOSE NOTES. GO CRAZY, BUT I PUT WHAT I THAUGHT I WAS RIGHT)

NOTE- THE BRIDGE STARTS WITH GUITARS 6 AND 5

NOTE- THE BRIDGE Can be divided into 36 measures!! SO... ABOVE EACH BOX THINGY,
IVE PUT WHAT MEASURES ARE IN IT
_______________________________________________________________________________

		INTRO


Intro: MEASURE 1   GUITAR 1   PALM MUTED (If want u can just not palm mute it).
e|-------------------------------------------------------------------------|
B|-------------------------------------------------------------------------|
G|-------------------------------------------------------------------------|
D|--11--------1--1--------1--1-------1--1----------------------------------|
A|--11--------1--1--------1--1-------1--1----------------------------------|
D|--11--------1--1--------1--1-------1--1----------------------------------|
    xx        x  x        x  x       x  x             

Intro: MEASURE 1 GUITAR 2  
e|-------------------------------------------------------------------|
B|-------------------------------------------------------------------|
G|------------------------1---0--------------------------------------|
D|-----------1------3-------------1------1---------------------------|
A|--------------1---------------------1------------------------------|
D|-1-1---------------------------------------------------------------|



Intro: MEASURE 2   GUITAR 1     PALM MUTED (If want u can just not palm mute it).
e|---------------------------------------------------------------------------|
B|---------------------------------------------------------------------------|
G|---------------------------------------------------------------------------|
D|--11--------1--1--------1--1-------1--1------------------------------------|
A|--11--------1--1--------1--1-------1--1------------------------------------|
D|--11--------1--1--------1--1-------1--1------------------------------------|
    xx        x  x        x  x       x  x             


Intro: MEASURE 2 GUITAR 2   
e|-------------------------------------------------------------------|
B|-------------------------------------------------------------------|
G|------------------------1---0--------------------------------------|
D|-----------1------3-------------1----------------------------------|
A|--------------1---------------------1------------------------------|
D|-1-1------------------------------------------13\1-----------------|

Intro: MEASURE 3 GUITAR 1     PALM MUTED (If want u can just not palm mute it).
e|---------------------------------------------------------------------------|
B|---------------------------------------------------------------------------|
G|---------------------------------------------------------------------------|
D|--11--------1--1--------1--1-------1--1------------------------------------|
A|--11--------1--1--------1--1-------1--1------------------------------------|
D|--11--------1--1--------1--1-------1--1------------------------------------|
   xx       x  x       x  x      x  x    

Intro: MEASURE 3   Guitar 2
e|-------------------------------------------------------------------|
B|-------------------------------------------------------------------|
G|------------------------1---0--------------------------------------|
D|-----------1------3-------------1------1---------------------------|
A|--------------1---------------------1------------------------------|
D|-1-1---------------------------------------------------------------|

Intro: MEASURE 3 GUITAR 3  (THIS IS THE FIRST TIME GUITAR 3 COMES in)
e|-------------------------------------------------------------------|
B|-------------------------------------------------------------------|
G|------------------------13---12------------------------------------|
D|-----------13------15-------------13------13-----------------------|
A|---------------13---------------------13---------------------------|
D|-13-13-------------------------------------------------------------|

Intro: MEASURE 4 GUITAR 1      PALM MUTED (If want u can just not palm mute it).
e|---------------------------------------------------------------------------|
B|---------------------------------------------------------------------------|
G|---------------------------------------------------------------------------|
D|--11--------1--1--------1--1-------1--1------------------------------------|
A|--11--------1--1--------1--1-------1--1------------------------------------|
D|--11--------1--1--------1--1-------1--1------------------------------------|
    xx        x  x        x  x       x  x            


Intro: MEASURE 4 GUITAR 2
e|-------------------------------------------------------------------|
B|-------------------------------------------------------------------|
G|------------------------1---0---------1--0-------------------------|
D|-----------1------3-------------1-1------------1-1-1---------------|
A|--------------1----------------------------------------------------|
D|-1-1---------------------------------------------------------------|

Intro: PART 4 GUITAR 3
e|-------------------------------------------------------------------|
B|-------------------------------------------------------------------|
G|------------------------13-12----------------13-12-----------------|
D|-----------13------15-------------13-13---------------13-13-13-----|
A|---------------13--------------------------------------------------|
D|-13-13-------------------------------------------------------------|

			VERSE 1


VERSE 1:  GUITAR 1   PALM MUTED (If want u can just not palm mute it).
e|---------------------------------------------------------------------------|
B|---------------------------------------------------------------------------|
G|---------------------------------------------------------------------------|
D|--11--------1--1--------1--1-------1--1------------------------------------|
A|--11--------1--1--------1--1-------1--1------------------------------------|
D|--11--------1--1--------1--1-------1--1------------------------------------|
    xx        x  x        x  x       x  x                                      
-   I.........        I  always believed in                                    
                                                                               

e|---------------------------------------------------------------------------|
B|---------------------------------------------------------------------------|
G|---------------------------------------------------------------------------|
D|--11--------1--1--------1--1-------1--1------------------------------------|
A|--11--------1--1--------1--1-------1--1------------------------------------|
D|--11--------1--1--------1--1-------1--1------------------------------------|
    xx        x  x        x  x       x  x                                      
 futures                          I hope for                                    

e|---------------------------------------------------------------------------|
B|---------------------------------------------------------------------------|
G|---------------------------------------------------------------------------|
D|--11--------1--1--------1--1-------1--1------------------------------------|
A|--11--------1--1--------1--1-------1--1------------------------------------|
D|--11--------1--1--------1--1-------1--1------------------------------------|
    xx        x  x        x  x       x  x                                       
   bet.....................ter                                              

e|---------------------------------------------------------------------------|
B|---------------------------------------------------------------------------|
G|---------------------------------------------------------------------------|
D|-----11--------1--1--------1--1-------1--1---------------------------------|
A|-----11--------1--1--------1--1-------1--1---------------------------------|
D|-----11--------1--1--------1--1-------1--1---------------------------------|
       xx        x  x        x  x       x  x                                    
in Nov..........ember                                                          


e|---------------------------------------------------------------------------|
B|---------------------------------------------------------------------------|
G|---------------------------------------------------------------------------|
D|--11--------1--1--------1--1-------1--1------------------------------------|
A|--11--------1--1--------1--1-------1--1------------------------------------|
D|--11--------1--1--------1--1-------1--1------------------------------------|
    xx        x  x        x  x       x  x                                      
- I try              the same losing lucky                                     
                                                                               
e|---------------------------------------------------------------------------|
B|---------------------------------------------------------------------------|
G|---------------------------------------------------------------------------|
D|--11--------1--1--------1--1-------1--1------------------------------------|
A|--11--------1--1--------1--1-------1--1------------------------------------|
D|--11--------1--1--------1--1-------1--1------------------------------------|
    xx        x  x        x  x       x  x                                      
 numbers                         It could be a                                 


e|---------------------------------------------------------------------------|
B|---------------------------------------------------------------------------|
G|---------------------------------------------------------------------------|
D|--11--------1--1--------1--1-------1--1------------------------------------|
A|--11--------1--1--------1--1-------1--1------------------------------------|
D|--11--------1--1--------1--1-------1--1------------------------------------|
    xx        x  x        x  x       x  x                                      
 cold   ni................ght 

e|---------------------------------------------------------------------------|
B|---------------------------------------------------------------------------|
G|---------------------------------------------------------------------------|
D|-----11--------1--1--------1--1-------1--1---------------------------------|
A|-----11--------1--1--------1--1-------1--1---------------------------------|
D|-----11--------1--1--------1--1-------1--1---------------------------------|
       xx        x  x        x  x       x  x                                  
for a li...fe  ti.....me


e|---------------------------------------------------------------------------|
B|---------------------------------------------------------------------------|
G|---------------------------------------------------------------------------|
D|--11--------1--1--------1--1-------1--1------------------------------------|
A|--11--------1--1--------1--1-------1--1------------------------------------|
D|--11--------1--1--------1--1-------1--1------------------------------------|
    xx        x  x        x  x       x  x                                     
-   he....y  n......ow                                                         

e|---------------------------------------------------------------------------|
B|---------------------------------------------------------------------------|
G|---------------------------------------------------------------------------|
D|---11-----------1--1--------1--1-------1--1--------------------------------|
A|---11-----------1--1--------1--1-------1--1--------------------------------|
D|---11-----------1--1--------1--1-------1--1--------------------------------|
     xx           x  x        x  x       x  x                                 
you can't  keep saying       endle.......ssly:                                      

e|---------------------------------------------------------------------------|
B|---------------------------------------------------------------------------|
G|---------------------------------------------------------------------------|
D|--11--------1--1--------1--1-------1--1------------------------------------|
A|--11--------1--1--------1--1-------1--1------------------------------------|
D|--11--------1--1--------1--1-------1--1------------------------------------|
    xx        x  x        x  x       x  x                                     
my  dar........ling,                                                

e|---------------------------------------------------------------------------|
B|---------------------------------------------------------------------------|
G|---------------------------------------------------------------------------|
D|-----11--------1--1--------1--1-------1--1---------------------------------|
A|-----11--------1--1--------1--1-------1--1---------------------------------|
D|-----11--------1--1--------1--1-------1--1---------------------------------|
       xx        x  x        x  x       x  x                                  
 how long      until this affects       me?
	
VERSE 1:  GUITAR 2     
e|---------------------------------------------------------------------------|
B|---------------------------------------------------------------------------|
G|88888888888888888888888888888888-------------------------------------------|
D|88888888888888888888888888888888------(32X OR IF YOU CAN'T do that, 16X )--|
A|66666666666666666666666666666666-------------------------------------------|
D|---------------------------------------------------------------------------|
  I........  I  always believed in                                             

e|---------------------------------------------------------------------------|
B|---------------------------------------------------------------------------|
G|88888888888888888888888888888888-------------------------------------------|
D|88888888888888888888888888888888------(32X OR IF YOU CAN'T do that, 16X )--|
A|66666666666666666666666666666666-------------------------------------------|
D|---------------------------------------------------------------------------|
   futures              I hope for                                             

e|---------------------------------------------------------------------------|
B|---------------------------------------------------------------------------|
G|---------------------------------------------------------------------------|
D|88888888888888888888888888888888------(32X OR IF YOU CAN'T do that, 16X )--|
A|66666666666666666666666666666666-------------------------------------------|
D|---------------------------------------------------------------------------|
   bet.....................ter                                              

e|---------------------------------------------------------------------------|
B|---------------------------------------------------------------------------|
G|---------------------------------------------------------------------------|
D|88888888888888888888888888888888------(32X OR IF YOU CAN'T do that, 16X )--|
A|66666666666666666666666666666666-------------------------------------------|
D|---------------------------------------------------------------------------|
   In      Nov...........ember                                                  

e|---------------------------------------------------------------------------|
B|---------------------------------------------------------------------------|
G|88888888888888888888888888888888-------------------------------------------|
D|88888888888888888888888888888888------(32X OR IF YOU CAN'T do that, 16X )--|
A|66666666666666666666666666666666-------------------------------------------|
D|---------------------------------------------------------------------------|
- I try      the same losing lucky                                             
                                                                               
e|---------------------------------------------------------------------------|
B|---------------------------------------------------------------------------|
G|88888888888888888888888888888888-------------------------------------------|
D|88888888888888888888888888888888------(32X OR IF YOU CAN'T do that, 16X )--|
A|66666666666666666666666666666666-------------------------------------------|
D|---------------------------------------------------------------------------|
   numbers           It could be a                                             



e|---------------------------------------------------------------------------|
B|---------------------------------------------------------------------------|
G|---------------------------------------------------------------------------|
D|88888888888888888888888888888888------(32X OR IF YOU CAN'T do that, 16X )--|
A|66666666666666666666666666666666-------------------------------------------|
D|---------------------------------------------------------------------------|
   cold   ni................ght 

e|---------------------------------------------------------------------------|
B|---------------------------------------------------------------------------|
G|---------------------------------------------------------------------------|
D|88888888888888888888888888888888------(32X OR IF YOU CAN'T do that, 16X )--|
A|66666666666666666666666666666666-------------------------------------------|
D|---------------------------------------------------------------------------|
    for a  li..fe...ti.....me

e|---------------------------------------------------------------------------|
B|---------------------------------------------------------------------------|
G|88888888888888888888888888888888-------------------------------------------|
D|88888888888888888888888888888888------(32X OR IF YOU CAN'T do that, 16X )--|
A|66666666666666666666666666666666-------------------------------------------|
D|---------------------------------------------------------------------------|
-   h....ey    n......ow                                                      

e|---------------------------------------------------------------------------|
B|---------------------------------------------------------------------------|
G|88888888888888888888888888888888-------------------------------------------|
D|88888888888888888888888888888888------(32X OR IF YOU CAN'T do that, 16X )--|
A|66666666666666666666666666666666-------------------------------------------|
D|---------------------------------------------------------------------------|
  you can't keep saying endlessly:                                             

e|---------------------------------------------------------------------------|
B|---------------------------------------------------------------------------|
G|---------------------------------------------------------------------------|
D|88888888888888888888888888888888------(32X OR IF YOU CAN'T do that, 16X )--|
A|66666666666666666666666666666666-------------------------------------------|
D|---------------------------------------------------------------------------|
    my  dar........ling,                                                

e|---------------------------------------------------------------------------|
B|---------------------------------------------------------------------------|
G|---------------------------------------------------------------------------|
D|88888888888888888888888888888888------(32X OR IF YOU CAN'T do that, 16X )--|
A|66666666666666666666666666666666-------------------------------------------|
D|---------------------------------------------------------------------------|
  how long until this affects me?

VERSE 1: GUITAR 3!!!! 
e|---------------------------------------------------------------------------|
B|---------------------------------------------------------------------------|
G|---------------------------------------------------------------------------|
D|---------------------------------------------------------------------------|
A|---------------------------------------------------------------------------|
D|---------------------------------------------------------------------------|
-I ALWAYYS BELIEVED IN FUTURES. I HOPE FOR BETTER IN NOVEMBER. I TRY THE SAME

e|---------------------------------------------------------------------------|
B|---------------------------------------------------------------------------|
G|---------------------------------------------------------------------------|
D|---------------------------------------------------------------------------|
A|---------------------------------------------------------------------------|
D|---------------------------------------------------------------------------|
 LOSING LUCKY NUMBERS. IT COULD BE A COLD NIGHT... FOR A LIFETIME. 

(NOTE- HERES WHERE IT COMES IN.) 
e|--------6-----6------------6-------6-------6-------------------------------|
B|-----4-----4-----4-3--4-------4-------4-------4------3--------------------|
G|--5------------------------------------------------------------------------|
D|---------------------------------------------------------------------------|
A|---------------------------------------------------------------------------|
D|---------------------------------------------------------------------------|
   He..y  no..w,         You  can't keep saying endlessly                      

e|-------6-------6-------6-----------------6-------4-------3-------1---------|
B|---4-------4-------4-------4-----3---4-------4-------4-------4-------4-----|
G|---------------------------------------------------------------------------|
D|---------------------------------------------------------------------------|
A|---------------------------------------------------------------------------|
D|---------------------------------------------------------------------------|
     My     dar....ling                how long until this affects    me?      

VERSE 1: GUITAR 4  )
e|---------------------------------------------------------------------------|
B|---------------------------------------------------------------------------|
G|---------------------------------------------------------------------------|
D|---------------------------------------------------------------------------|
A|---------------------------------------------------------------------------|
D|---------------------------------------------------------------------------|
-I ALWAYYS BELIEVED IN FUTURES. I HOPE FOR BETTER IN NOVEMBER. I TRY THE SAME

e|---------------------------------------------------------------------------|
B|---------------------------------------------------------------------------|
G|---------------------------------------------------------------------------|
D|---------------------------------------------------------------------------|
A|---------------------------------------------------------------------------|
D|---------------------------------------------------------------------------|
 LOSING LUCKY NUMBERS. IT COULD BE A COLD NIGHT... FOR A LIFETIME. 

e|---------------------------------------------------------------------------|
B|---------------------------------------------------------------------------|
G|---------------------------------------------------------------------------|
D|---------------------------------------------------------------------------|
A|---------------------------------------------------------------------------|
D|---------------------------------------------------------------------------|
   He..y  no..w,         You  can't keep saying endlessly;                     

e|---------------------------------------------------------------------------|
B|------------------------------------------------------------------------18-|
G|---------------------------------------------------------------------------|
D|---------------------------------------------------------------------------|
A|---------------------------------------------------------------------------|
D|---------------------------------------------------------------------------|
     My     dar....ling                how long until this affects    me?    

             		   MOVING ON!!!!!!  
		 	
			    CHORUS	


CHORUS 1 : GUITAR 1
e|---------------------------------------------------------------------------|
B|----(16x !!!!)---------------------------------(16x !!!!)------------------|
G|---------------------------------------------------------------------------|
D|-6-6-6-6-6-6-6-6-6-6-6-6-6-6-6-6--------1-1-1-1-1-1-1-1-1-1-1-1-1-1-1-1----|
A|-6-6-6-6-6-6-6-6-6-6-6-6-6-6-6-6--------1-1-1-1-1-1-1-1-1-1-1-1-1-1-1-1----|
D|-6-6-6-6-6-6-6-6-6-6-6-6-6-6-6-6--------1-1-1-1-1-1-1-1-1-1-1-1-1-1-1-1----|
   say hello to   good times               trade  up for the   fast  ride


e|---------------------------------------------------------------------------|
B|---------------( 16X )-----------------------------------------------------|
G|---------------------------------------------------------------------------|
D|--6---6---6---6---6---6---6---6--6---6---6---6---6---6---6---6-------------|
A|--6---6---6---6---6---6---6---6--6---6---6---6---6---6---6---6-------------|
D|--6---6---6--6--6---6---6---6--6---6---6---6---6---6---6---6-------------|           
 We close  our  eyes  while  the  nickeland  dime   take   the 

e|---------------------------------------------------------------------------|
B|--------------( 16X )------------------------------------------------------|
G|---------------------------------------------------------------------------|
D|---1-1-1-1-1-1-1-1-1-1-1-1-1-1-1-1-----------------------------------------|
A|---1-1-1-1-1-1-1-1-1-1-1-1-1-1-1-1-----------------------------------------|
D|---1-1-1-1-1-1-1-1-1-1-1-1-1-1-1-1-----------------------------------------|
       Stre.ets    compl.....etely

CHORUS 1 : GUITAR 2!!! 
e|---------------------------------------------------------------------------|
B|---8------9-----6------6-----6-------8-------------------------------------|
G|---------------------------------------------------------------------------|
D|---------------------------------------------------------------------------|
A|---------------------------------------------------------------------------|
D|---------------------------------------------------------------------------|
    Say     he...llo    to   good    times 

e|---------------------------------------------------------------------------|
B|--8-------8----6-----6------6-------4--------------------------------------|
G|---------------------------------------------------------------------------|
D|---------------------------------------------------------------------------|
A|---------------------------------------------------------------------------|
D|---------------------------------------------------------------------------|
   Trade   up   for   the   fast    ride

e|---------------------------------------------------------------------------|
B|--8-----8------9------6--------6-------6----6----9-----8-----6-----4---3---|
G|---------------------------------------------------------------------------|
D|---------------------------------------------------------------------------|
A|---------------------------------------------------------------------------|
D|---------------------------------------------------------------------------|
   We   close    our   eyes    while    the  nick..el   and   dime  take      

e|---------------------------------------------------------------------------|
B|--------8----6-----4-----3-----8----6----4--3------------------------------|
G|---------------------------------------------------------------------------|
D|---------------------------------------------------------------------------|
A|---------------------------------------------------------------------------|
D|---------------------------------------------------------------------------|
   The  str.......eets    comp...........letely

  		  	   INTRO 2

				
Intro 2: MEASURE 1   GUITAR 1   PALM MUTED (If want u can just not palm mute it).
e|---------------------------------------------------------------------------|
B|---------------------------------------------------------------------------|
G|---------------------------------------------------------------------------|
D|--11--------1--1--------1--1-------1--1------------------------------------|
A|--11--------1--1--------1--1-------1--1------------------------------------|
D|--11--------1--1--------1--1-------1--1------------------------------------|
    xx        x  x        x  x       x  x             

Intro 2: MEASURE 1 GUITAR 2
e|-------------------------------------------------------------------|
B|-------------------------------------------------------------------|
G|----------------------------1---0----------------------------------|
D|---------------1-------3-------------1------1----------------------|
A|-------------------1---------------------1-------------------------|
D|-13/1----1-1-------------------------------------------------------|



Intro 2: MEASURE 2   GUITAR 1     PALM MUTED (If want u can just not palm mute it).
e|---------------------------------------------------------------------------|
B|---------------------------------------------------------------------------|
G|---------------------------------------------------------------------------|
D|--11--------1--1--------1--1-------1--1------------------------------------|
A|--11--------1--1--------1--1-------1--1------------------------------------|
D|--11--------1--1--------1--1-------1--1------------------------------------|
    xx        x  x        x  x       x  x             


Intro 2: MEASURE 2 GUITAR 2   
e|-------------------------------------------------------------------|
B|-------------------------------------------------------------------|
G|------------------------1---0--------------------------------------|
D|-----------1------3-------------1----------------------------------|
A|--------------1---------------------1------------------------------|
D|-1-1------------------------------------------13\1-----------------|


Intro 2: MEASURE 3 GUITAR 1   PALM MUTED (If want u can just not palm mute it).
e|---------------------------------------------------------------------------|
B|---------------------------------------------------------------------------|
G|---------------------------------------------------------------------------|
D|--11--------1--1--------1--1-------1--1------------------------------------|
A|--11--------1--1--------1--1-------1--1------------------------------------|
D|--11--------1--1--------1--1-------1--1------------------------------------|
   xx       x  x       x  x      x  x    

Intro 2: MEASURE 3   Guitar 2
e|-------------------------------------------------------------------|
B|-------------------------------------------------------------------|
G|------------------------1---0--------------------------------------|
D|-----------1------3-------------1------1---------------------------|
A|--------------1---------------------1------------------------------|
D|-1-1---------------------------------------------------------------|

Intro 2: MEASURE 3 GUITAR 3  (THIS IS THE FIRST TIME GUITAR 3 COMES in)
e|-------------------------------------------------------------------|
B|-------------------------------------------------------------------|
G|------------------------13---12------------------------------------|
D|-----------13------15-------------13------13-----------------------|
A|---------------13---------------------13---------------------------|
D|-13-13-------------------------------------------------------------|

Intro 2: MEASURE 4 GUITAR 1   PALM MUTED (If want u can just not palm mute it).
e|---------------------------------------------------------------------------|
B|---------------------------------------------------------------------------|
G|---------------------------------------------------------------------------|
D|--11--------1--1--------1--1-------1--1------------------------------------|
A|--11--------1--1--------1--1-------1--1------------------------------------|
D|--11--------1--1--------1--1-------1--1------------------------------------|
    xx        x  x        x  x       x  x            


Intro 2: MEASURE 4 GUITAR 2
e|-------------------------------------------------------------------|
B|-------------------------------------------------------------------|
G|------------------------1---0---------1--0-------------------------|
D|-----------1------3-------------1-1------------1-1-1---------------|
A|--------------1----------------------------------------------------|
D|-1-1---------------------------------------------------------------|


Intro 2: MEASURE 4 GUITAR 3
e|-------------------------------------------------------------------|
B|-------------------------------------------------------------------|
G|------------------------13-12----------------13-12-----------------|
D|-----------13------15-------------13-13---------------13-13-13-----|
A|---------------13--------------------------------------------------|
D|-13-13-------------------------------------------------------------|


VERSE 2

VERSE 2:  GUITAR 1   PALM MUTED (If want u can just not palm mute it).
e|---------------------------------------------------------------------------|
B|---------------------------------------------------------------------------|
G|---------------------------------------------------------------------------|
D|--11--------1--1--------1--1-------1--1------------------------------------|
A|--11--------1--1--------1--1-------1--1------------------------------------|
D|--11--------1--1--------1--1-------1--1------------------------------------|
    xx        x  x        x  x       x  x                                     
 And I.........        I  always could count on                                

e|---------------------------------------------------------------------------|
B|---------------------------------------------------------------------------|
G|---------------------------------------------------------------------------|
D|--11--------1--1--------1--1-------1--1------------------------------------|
A|--11--------1--1--------1--1-------1--1------------------------------------|
D|--11--------1--1--------1--1-------1--1------------------------------------|
    xx        x  x        x  x       x  x                                     
 futures                          that things would                           

e|---------------------------------------------------------------------------|
B|---------------------------------------------------------------------------|
G|---------------------------------------------------------------------------|
D|--11--------1--1--------1--1-------1--1------------------------------------|
A|--11--------1--1--------1--1-------1--1------------------------------------|
D|--11--------1--1--------1--1-------1--1------------------------------------|
    xx        x  x        x  x       x  x                                     
   look  u....................p                                              

e|---------------------------------------------------------------------------|
B|---------------------------------------------------------------------------|
G|---------------------------------------------------------------------------|
D|-----11--------1--1--------1--1-------1--1---------------------------------|
A|-----11--------1--1--------1--1-------1--1---------------------------------|
D|-----11--------1--1--------1--1-------1--1---------------------------------|
       xx        x  x        x  x       x  x                                  
and they look  u....p                                                         

e|---------------------------------------------------------------------------|
B|---------------------------------------------------------------------------|
G|---------------------------------------------------------------------------|
D|--11--------1--1--------1--1-------1--1------------------------------------|
A|--11--------1--1--------1--1-------1--1------------------------------------|
D|--11--------1--1--------1--1-------1--1------------------------------------|
    xx        x  x        x  x       x  x                                      
-  Why                  so hard to find a 

e|---------------------------------------------------------------------------|
B|---------------------------------------------------------------------------|
G|---------------------------------------------------------------------------|
D|--11--------1--1--------1--1-------1--1------------------------------------|
A|--11--------1--1--------1--1-------1--1------------------------------------|
D|--11--------1--1--------1--1-------1--1------------------------------------|
    xx        x  x        x  x       x  x                                      
 balance                    between living                                     


e|---------------------------------------------------------------------------|
B|---------------------------------------------------------------------------|
G|---------------------------------------------------------------------------|
D|--11--------1--1--------1--1-------1--1------------------------------------|
A|--11--------1--1--------1--1-------1--1------------------------------------|
D|--11--------1--1--------1--1-------1--1------------------------------------|
    xx        x  x        x  x       x  x                                      
   de.....................cent    and the cold

e|---------------------------------------------------------------------------|
B|---------------------------------------------------------------------------|
G|---------------------------------------------------------------------------|
D|-----11--------1--1--------1--1-------1--1---------------------------------|
A|-----11--------1--1--------1--1-------1--1---------------------------------|
D|-----11--------1--1--------1--1-------1--1---------------------------------|
       xx        x  x        x  x       x  x                                   
  and real

e|---------------------------------------------------------------------------|
B|---------------------------------------------------------------------------|
G|---------------------------------------------------------------------------|
D|--11--------1--1--------1--1-------1--1------------------------------------|
A|--11--------1--1--------1--1-------1--1------------------------------------|
D|--11--------1--1--------1--1-------1--1------------------------------------|
    xx        x  x        x  x       x  x                                      
-   he....y  n......ow                                                          
                                                                               

e|---------------------------------------------------------------------------|
B|---------------------------------------------------------------------------|
G|---------------------------------------------------------------------------|
D|---11-----------1--1--------1--1-------1--1--------------------------------|
A|---11-----------1--1--------1--1-------1--1--------------------------------|
D|---11-----------1--1--------1--1-------1--1--------------------------------|
     xx           x  x        x  x       x  x                                 
    what     is  it you    think you  see?                                    
e|---------------------------------------------------------------------------|
B|---------------------------------------------------------------------------|
G|---------------------------------------------------------------------------|
D|--11--------1--1--------1--1-------1--1------------------------------------|
A|--11--------1--1--------1--1-------1--1------------------------------------|
D|--11--------1--1--------1--1-------1--1------------------------------------|
    xx        x  x        x  x       x  x                                     
my  dar........ling,                                                



e|---------------------------------------------------------------------------|
B|---------------------------------------------------------------------------|
G|---------------------------------------------------------------------------|
D|-----11--------1--1--------1--1-------1--1---------------------------------|
A|-----11--------1--1--------1--1-------1--1---------------------------------|
D|-----11--------1--1--------1--1-------1--1---------------------------------|
       xx        x  x        x  x       x  x                                  
      now's the time to     disa.....gree
 





VERSE 2  GUITAR 2!!!!!!!! 
e|---------------------------------------------------------------------------|
B|---------------------------------------------------------------------------|
G|88888888888888888888888888888888-------------------------------------------|
D|88888888888888888888888888888888------(32X OR IF YOU CAN'T do that, 16X )--|
A|66666666666666666666666666666666-------------------------------------------|
D|---------------------------------------------------------------------------|
  And I.. I  always could count on                                            


e|---------------------------------------------------------------------------|
B|---------------------------------------------------------------------------|
G|88888888888888888888888888888888-------------------------------------------|
D|88888888888888888888888888888888------(32X OR IF YOU CAN'T do that, 16X )--|
A|66666666666666666666666666666666-------------------------------------------|
D|---------------------------------------------------------------------------|
   futures       that things would                                             



e|---------------------------------------------------------------------------|
B|---------------------------------------------------------------------------|
G|---------------------------------------------------------------------------|
D|88888888888888888888888888888888------(32X OR IF YOU CAN'T do that, 16X )--|
A|66666666666666666666666666666666-------------------------------------------|
D|---------------------------------------------------------------------------|
   look  u....................p                                              





e|---------------------------------------------------------------------------|
B|---------------------------------------------------------------------------|
G|---------------------------------------------------------------------------|
D|88888888888888888888888888888888------(32X OR IF YOU CAN'T do that, 16X )--|
A|66666666666666666666666666666666-------------------------------------------|
D|---------------------------------------------------------------------------|

      and they look  u....p                                                          





e|---------------------------------------------------------------------------|
B|---------------------------------------------------------------------------|
G|88888888888888888888888888888888-------------------------------------------|
D|88888888888888888888888888888888------(32X OR IF YOU CAN'T do that, 16X )--|
A|66666666666666666666666666666666-------------------------------------------|
D|---------------------------------------------------------------------------|
-  Why          so hard to find a 


e|---------------------------------------------------------------------------|
B|---------------------------------------------------------------------------|
G|88888888888888888888888888888888-------------------------------------------|
D|88888888888888888888888888888888------(32X OR IF YOU CAN'T do that, 16X )--|
A|66666666666666666666666666666666-------------------------------------------|
D|---------------------------------------------------------------------------|
  balance           between living                                             







e|---------------------------------------------------------------------------|
B|---------------------------------------------------------------------------|
G|---------------------------------------------------------------------------|
D|88888888888888888888888888888888------(32X OR IF YOU CAN'T do that, 16X )--|
A|66666666666666666666666666666666-------------------------------------------|
D|---------------------------------------------------------------------------|
   de.........cent    and the cold





e|---------------------------------------------------------------------------|
B|---------------------------------------------------------------------------|
G|---------------------------------------------------------------------------|
D|88888888888888888888888888888888------(32X OR IF YOU CAN'T do that, 16X )--|
A|66666666666666666666666666666666-------------------------------------------|
D|---------------------------------------------------------------------------|
       and real



                                                          



e|---------------------------------------------------------------------------|
B|---------------------------------------------------------------------------|
G|88888888888888888888888888888888-------------------------------------------|
D|88888888888888888888888888888888------(32X OR IF YOU CAN'T do that, 16X )--|
A|66666666666666666666666666666666-------------------------------------------|
D|---------------------------------------------------------------------------|
-   he....y  n......ow                                                          
                                                                               






e|---------------------------------------------------------------------------|
B|---------------------------------------------------------------------------|
G|88888888888888888888888888888888-------------------------------------------|
D|88888888888888888888888888888888------(32X OR IF YOU CAN'T do that, 16X )--|
A|66666666666666666666666666666666-------------------------------------------|
D|---------------------------------------------------------------------------|
    what     is  it you    think you  see?                                     
 


e|---------------------------------------------------------------------------|
B|---------------------------------------------------------------------------|
G|---------------------------------------------------------------------------|
D|88888888888888888888888888888888------(32X OR IF YOU CAN'T do that, 16X )--|
A|66666666666666666666666666666666-------------------------------------------|
D|---------------------------------------------------------------------------|
     my  dar........ling,                                                



e|---------------------------------------------------------------------------|
B|---------------------------------------------------------------------------|
G|---------------------------------------------------------------------------|
D|88888888888888888888888888888888------(32X OR IF YOU CAN'T do that, 16X )--|
A|66666666666666666666666666666666-------------------------------------------|
D|---------------------------------------------------------------------------|
   now's the time to disa...gree
 

VERSE 2 GUITAR 3 !!!!!!!!!!
e|---------------------------------------------------------------------------|
B|---------------------------------------------------------------------------|
G|---------------------------------------------------------------------------|
D|---------------------------------------------------------------------------|
A|---------------------------------------------------------------------------|
D|---------------------------------------------------------------------------|
  I always could count on futures; that things will look up and they look up 


e|---------------------------------------------------------------------------|
B|---------------------------------------------------------------------------|
G|---------------------------------------------------------------------------|
D|---------------------------------------------------------------------------|
A|---------------------------------------------------------------------------|
D|---------------------------------------------------------------------------|
  Why so hard to find a balance between living decent... and the cold and real


e|---------------------------------------------------------------------------|
B|---------------------------------------------------------------------------|
G|---------------------------------------------------------------------------|
D|---------------------------------------------------------------------------|
A|---------------------------------------------------------------------------|
D|---------------------------------------------------------------------------|
  Hey now, what is it you think you see?




e|---------------6---------------6-------4-------3-------1-------------------|
B|------------------4--3--4----------4-------4-------4-------4---------------|
G|---------------------------------------------------------------------------|
D|---------------------------------------------------------------------------|
A|---------------------------------------------------------------------------|
D|---------------------------------------------------------------------------|
  My darling...                 now's  the  time  to  disagree 






VERSE 2 GUITAR 4 !!!!!!!
e|-----------------------------------------------18--------------------------|
B|----------------------------------------16--16-----------------------------|
G|---------------------------------------------------------------------------|
D|---------------------------------------------------------------------------|
A|---------------------------------------------------------------------------|
D|---------------------------------------------------------------------------|
  I always could count on futures; that things will 


e|--------------------------------------------18-----------------------------|
B|-------------------------------------16--16--------------------------------|
G|---------------------------------------------------------------------------|
D|---------------------------------------------------------------------------|
A|---------------------------------------------------------------------------|
D|---------------------------------------------------------------------------|
  look up     and they look up...



e|-----------------------------------------------18--------------------------|
B|----------------------------------------16--16-----------------------------|
G|---------------------------------------------------------------------------|
D|---------------------------------------------------------------------------|
A|---------------------------------------------------------------------------|
D|---------------------------------------------------------------------------|
Why so hard to find a balance between living decent...



e|---------------------------------------18----------------------------------|
B|--------------------------------16--16-------------------------------------|
G|---------------------------------------------------------------------------|
D|---------------------------------------------------------------------------|
A|---------------------------------------------------------------------------|
D|---------------------------------------------------------------------------|
  ... and the cold and real


e|-----------------------------------------------18--------------------------|
B|-16-16-16-16-16-16-16-16-16-16-16-16-16-16-16------------------------------|
G|---------------------------------------------------------------------------|
D|---------------------------------------------------------------------------|
A|---------------------------------------------------------------------------|
D|---------------------------------------------------------------------------|
 Hey            now,                                   







[ Tab from: http://www.guitartabs.cc/tabs/j/jimmy_eat_world/futures_tab_ver_2.html ]
e|-----------------------------------------------18--------------------------|
B|-16-16-16-16-16-16-16-16-16-16-16-16-16-16-16------------------------------|
G|---------------------------------------------------------------------------|
D|---------------------------------------------------------------------------|
A|---------------------------------------------------------------------------|
D|---------------------------------------------------------------------------|
   What   is   it   you   think   you   see




e|------------------------------------------------------18-------------------|
B|-------16-16-16-16-16-16-16-16-16-16-16-16-16-16-16------------------------|
G|---------------------------------------------------------------------------|
D|---------------------------------------------------------------------------|
A|---------------------------------------------------------------------------|
D|---------------------------------------------------------------------------|
  My      dar.............ling                 



e|------------------------------------------------------18-------------------|
B|---16-16-16-16-16-16-16-16-16-16-16-16-16-16-16----------------------------|
G|---------------------------------------------------------------------------|
D|---------------------------------------------------------------------------|
A|---------------------------------------------------------------------------|
D|---------------------------------------------------------------------------|
    now's      the         time       to    disagree


	

		             CHORUS 2

CHORUS 2 : GUITAR 1
e|---------------------------------------------------------------------------|
B|----(16x !!!!)---------------------------------(16x !!!!)------------------|
G|---------------------------------------------------------------------------|
D|-6-6-6-6-6-6-6-6-6-6-6-6-6-6-6-6--------1-1-1-1-1-1-1-1-1-1-1-1-1-1-1-1----|
A|-6-6-6-6-6-6-6-6-6-6-6-6-6-6-6-6--------1-1-1-1-1-1-1-1-1-1-1-1-1-1-1-1----|
D|-6-6-6-6-6-6-6-6-6-6-6-6-6-6-6-6--------1-1-1-1-1-1-1-1-1-1-1-1-1-1-1-1----|
   say hello to      good   times     trade  up for the   fast  ride



e|---------------------------------------------------------------------------|
B|---------------( 16X )-----------------------------------------------------|
G|---------------------------------------------------------------------------|
D|--6--6--6--6--6--6--6--6--6--6--6--6--6--6--6--6---------------------------|
A|--6--6--6--6--6--6--6--6--6--6--6--6--6--6--6--6---------------------------|
D|--6--6--6-6-6--6--6--6--6--6--6--6--6--6--6--6---------------------------|           
 We close our eyes while the nickel and dime take the 







e|---------------------------------------------------------------------------|
B|--------------( 16X )------------------------------------------------------|
G|---------------------------------------------------------------------------|
D|---1-1-1-1-1-1-1-1-1-1-1-1-1-1-1-1-----------------------------------------|
A|---1-1-1-1-1-1-1-1-1-1-1-1-1-1-1-1-----------------------------------------|
D|---1-1-1-1-1-1-1-1-1-1-1-1-1-1-1-1-----------------------------------------|
       Stre.ets    compl.....etely


CHORUS 2 : GUITAR 2!! 
e|---------------------------------------------------------------------------|
B|---8------9-----6------6-----6-------8-------------------------------------|
G|---------------------------------------------------------------------------|
D|---------------------------------------------------------------------------|
A|---------------------------------------------------------------------------|
D|---------------------------------------------------------------------------|
    Say     he...llo    to   good    times 



e|---------------------------------------------------------------------------|
B|--8-------8----6-----6------6-------4--------------------------------------|
G|---------------------------------------------------------------------------|
D|---------------------------------------------------------------------------|
A|---------------------------------------------------------------------------|
D|---------------------------------------------------------------------------|
   Trade   up   for   the   fast    ride


e|---------------------------------------------------------------------------|
B|--8-----8------9------6--------6-------6----6----9-----8-----6-----4---3---|
G|---------------------------------------------------------------------------|
D|---------------------------------------------------------------------------|
A|---------------------------------------------------------------------------|
D|---------------------------------------------------------------------------|
   We   close    our   eyes    while    the  nick..el   and   dime  take      


e|---------------------------------------------------------------------------|
B|--------8----6-----4-----3-----8----6----4--3------------------------------|
G|---------------------------------------------------------------------------|
D|---------------------------------------------------------------------------|
A|---------------------------------------------------------------------------|
D|---------------------------------------------------------------------------|
   The  str.......eets    comp...........letely



		




	  BRIDGE
 
(NOTE- THE BRIDGE Can be divided into 36 measures!!!! SO... ABOVE EACH BOX THINGY,
IVE PUT WHAT MEASURES ARE IN IT


BRIDGE:GUITAR 6 (ACOUSTIC SOUND) 
MEASURES:
   (1)           (2)        (3)         (4)            (5)
E--6----------6-----------6-----------6------------6-------------------------|
B----4-3-4------4-3-4-------4-3-4-------4-3-4--------4-3-4-------------------|
G----------------------------------------------------------------------------|
D----------------------------------------------------------------------------|
A----------------------------------------------------------------------------|
D----------------------------------------------------------------------------|



MEASURE:
  (6)        (7)          (8)       (9)         (10)      (11)         (12)
E-6----------6----------6----------6----------6----------8-----------8-------|
B---4-3-4------4-3-4------4-3-4------4-3-4------4-3-4------8---8-------8---8-|
G------------------------------------------------------------7-----------7---|
D----------------------------------------------------------------------------|
A----------------------------------------------------------------------------|
D----------------------------------------------------------------------------|
                                    haaaaaaaaaaaa.............haaaaaaaaaaaaaa



MEASURE:
     (13)      (14)       (15)       (16)       (17)     (18)
E--6----------6----------6----------6----------6----------6------------------|
B----4-3-4------4-3-4------4-3-4------4-3-4------4-3-4-------4-3-4-----------|
G----------------------------------------------------------------------------|
D----------------------------------------------------------------------------|
A----------------------------------------------------------------------------|
D----------------------------------------------------------------------------|
                                                  haaaaaaaaaaaa..........  


MEASURE: 
     (19)        (20)        (21)      (22)      (23)                 (24)
e|-8-----------8-----------6---------6---------6---------------------6-------|
B|---8---8-------8---8-------4-3-4-----4-3-4----4-3-4-----------------4-3-6--|
G|-----7-----------7---------------------------------------------------------|
D|---------------------------------------------------------------------------|
A|---------------------------------------------------------------------------|
D|---------------------------------------------------------------------------|
  ....haaaaaaaaaaaaaaaaa    hey..now          the past is told by thos who win 




MEASURES: 
     (25)       (26)        (27)              (28)         (29)       (30)
E--6----------6-----------6-----------------6------------6----------6--------|
B----4-3-4------4-3-4-------4-3-4-------------4-3-4--------4-3-4-----4-3-4---|
G----------------------------------------------------------------------------|
D----------------------------------------------------------------------------|
A----------------------------------------------------------------------------|
D----------------------------------------------------------------------------|
  My da....rling,     what matters is what hasn't been. Hey Now.......... were

MEASURES: 
     (31)        (32)                (33)         (34)         
E-6------------6--------------------6-----------6----------------------------|
B---4-3-4--------4-3-4---------------4-3-4--------4-3-4----------------------|
G----------------------------------------------------------------------------|
D----------------------------------------------------------------------------|
A----------------------------------------------------------------------------|
D----------------------------------------------------------------------------|
 wide awake and were thinking my   da.....rling 



MEASURES:
                 (35)                 (36)            
E--------------6--------------------6----------------------------------------|
B----------------4-3-4---------------4-3-4-----------------------------------|
G----------------------------------------------------------------------------|
D----------------------------------------------------------------------------|
A----------------------------------------------------------------------------|
D----------------------------------------------------------------------------|
            belive your voice  can mean something


BRIDGE:GUITAR 5!!!! (XYLAPHONE SOUND)
MEASURES:
       (1)                        (2)                         (3)
E-18-18---------------------18-18---------------------18-18------------------|
B------16 16-15 15 16 16---------16-16-15-15-16-16---------16-16-15-15-16-16-|
G----------------------------------------------------------------------------|
D----------------------------------------------------------------------------|
A----------------------------------------------------------------------------|
D----------------------------------------------------------------------------|



MEASURES:
         (4)                        (5)                       (6)
E-18-18---------------------18-18---------------------18-18------------------|
B------16 16-15 15 16 16---------16-16-15-15-16-16---------16-16-15-15-16-16-|
G----------------------------------------------------------------------------|
D----------------------------------------------------------------------------|
A----------------------------------------------------------------------------|
D----------------------------------------------------------------------------|



MEASURE: 
         (7)                        (8)                          (9)
E-18-18---------------------18-18---------------------18-18------------------|
B------16 16-15 15 16 16---------16-16-15-15-16-16---------16-16-15-15-16-16-|
G----------------------------------------------------------------------------|
D----------------------------------------------------------------------------|
A----------------------------------------------------------------------------|
D----------------------------------------------------------------------------|
                                              Haaaaaa.................aaaaaa   








MEASURES:
        (10)                        (11)                       (12)
E-18-18----------------------20-20----------------------20-20----------------|
B------16 16-15 15 16 16----------20-20-----20-20------------20-20-----20-20-|
G--------------------------------------19-19----------------------19-19------|
D----------------------------------------------------------------------------|
A----------------------------------------------------------------------------|
D----------------------------------------------------------------------------|
                     Haaaaaaa.....................aaaaaaa                      

MEASURES: 
          (13)                     (14)                      (15)
E-18-18----------------------18-18--------------------18-18------------------|
B------16 16-15 15 16 16----------16-16-15-15-16-16--------16-16-15-15-16-16-|
G----------------------------------------------------------------------------|
D----------------------------------------------------------------------------|
A----------------------------------------------------------------------------|
D----------------------------------------------------------------------------|


MEASURES: 
           (16)                    (17)                      (18)
E-18-18---------------------18-18---------------------18-18------------------|
B------16 16-15 15 16 16---------16-16-15-15-16-16---------16-16-15-15-16-16-|
G----------------------------------------------------------------------------|
D----------------------------------------------------------------------------|
A----------------------------------------------------------------------------|
D----------------------------------------------------------------------------|
                     Haaaaaaa...............aaaaaaa                     ha....

MEASURES:
           (19)                    (20)                     (21)
E-20-20--------------------20-20----------------------18-18------------------|
B------20-20-----20-20----------20-20-----20 20------------16-16-15-15-16-16-|
G-----------19-19--------------------19-19-----------------------------------|
D----------------------------------------------------------------------------|
A----------------------------------------------------------------------------|
D----------------------------------------------------------------------------|
.....................aaaaaaaaaaaaaaaaaaaaaa            hey............now,     

MEASURES:
         (22)                       (23)                      (24)
E-18-18---------------------18-18--------------------18-18-------------------|
B-------16 16-15 15 16 16---------16-16-15-15-16-16--------16-16-15-15-16-16-|
G----------------------------------------------------------------------------|
D----------------------------------------------------------------------------|
A----------------------------------------------------------------------------|
D----------------------------------------------------------------------------|
                            The   past   is   told   by   those     who  win


MEASURES:
        (25)                       (26)                       (27)
E-18-18---------------------18-18---------------------18-18------------------|
B------16 16-15 15 16 16---------16-16-15-15-16-16---------16-16-15-15-16-16-|
G----------------------------------------------------------------------------|
D----------------------------------------------------------------------------|
A----------------------------------------------------------------------------|
D----------------------------------------------------------------------------|
  My dar..............ling                       what   matters   is   what     


MEASURES: 
          (28)                    (29)                       (30)
E-18-18---------------------18-18---------------------18-18------------------|
B------16 16-15 15 16 16---------16-16-15-15-16-16---------16-16-15-15-16-16-|
G----------------------------------------------------------------------------|
D----------------------------------------------------------------------------|
A----------------------------------------------------------------------------|
D----------------------------------------------------------------------------|
    hasn't      been.       Hey....................now                   were   


MEASURES: 
        (31)                       (32)                     (33)
E-18-18---------------------18-18--------------------18-18-------------------|
B-------16 16-15 15 16 16---------16-16-15-15-16-16--------16-16-15-15-16-16-|
G----------------------------------------------------------------------------|
D----------------------------------------------------------------------------|
A----------------------------------------------------------------------------|
D----------------------------------------------------------------------------|
 wide   awake        and      were       thinking  my dar.................ling  


MEASURES:
       (34)                         (35)                       (36)
E-18-18---------------------18-18---------------------18-18------------------|
B------16 16-15 15 16 16----------16-16-15-15-16-16--------16-16-15-15-16-16-|
G----------------------------------------------------------------------------|
D----------------------------------------------------------------------------|
A----------------------------------------------------------------------------|
D----------------------------------------------------------------------------|
                           Believe your voice can      mean something 

BRIDGE:GUITAR 4 (acoustic or electric. I think acoustic)
MEASURES:
       (1)                        (2)                         (3)
e|---------------------------------------------------------------------------|
B|---------------------------------------------------------------------------|
G|---------------------------------------------------------------------------|
D|---------------------------------------------------------------------------|
A|---------------------------------------------------------------------------|
D|---------------------------------------------------------------------------|




MEASURES:
         (4)                        (5)                       (6)
e|---------------------------------------------------------------------------|
B|---------------------------------------------------------------------------|
G|-----------------------------8-------------7-----------5----------7--------|
D|---------------------------------------------------------------------------|
A|---------------------------------------------------------------------------|
D|---------------------------------------------------------------------------|



MEASURE: 
         (7)                        (8)                          (9)
e|---------------------------------------------------------------------------|
B|---------------------------------------------------------------------------|
G|-8-----------7------------5--------------7---------------8------------7----|
D|---------------------------------------------------------------------------|
A|---------------------------------------------------------------------------|
D|---------------------------------------------------------------------------|
                                              Haaaaaa.................aaaaaa  




MEASURES:
        (10)                        (11)                     (12)
e|---------------------------------------------------------------------------|
B|-------------------------------8--------6----------------------------------|
G|--5-----------7--------------------------------8------8--8---8h10---8------|
D|---------------------------------------------------------------------------|
A|---------------------------------------------------------------------------|
D|---------------------------------------------------------------------------|
                     Haaaaaaa.....................aaaaaaa                     


MEASURES: 
          (13)                     (14)                      (15)
e|---------------------------------------------------------------------------|
B|---------------------------------------------------------------------------|
G|------8------7--------------5---------7----------------8---------7---------|
D|---------------------------------------------------------------------------|
A|---------------------------------------------------------------------------|
D|---------------------------------------------------------------------------|



MEASURES: 
           (16)                    (17)                      (18)
e|---------------------------------------------------------------------------|
B|---------------------------------------------------------------------------|
G|------5-------7---------------8--------7-----------------5------7----------|
D|---------------------------------------------------------------------------|
A|---------------------------------------------------------------------------|
D|---------------------------------------------------------------------------|
                     Haaaaaaa...............aaaaaaa                     ha....


MEASURES:
           (19)                    (20)                     (21)
e|---------------------------------------------------------------------------|
B|------8--------6-----------------------------------------------------------|
G|--------------------8-------8---8---8h10---8----------8----------7---------|
D|---------------------------------------------------------------------------|
A|---------------------------------------------------------------------------|
D|---------------------------------------------------------------------------|
.....................aaaaaaaaaaaaaaaaaaaaaa            hey............now,    


MEASURES:
         (22)                       (23)                      (24)
e|---------------------------------------------------------------------------|
B|---------------------------------------------------------------------------|
G|------5-------7---------------8--------7-----------------5------7----------|
D|---------------------------------------------------------------------------|
A|---------------------------------------------------------------------------|
D|---------------------------------------------------------------------------|
                            The   past   is   told   by   those     who  win


MEASURES:
        (25)                       (26)                       (27)
e|---------------------------------------------------------------------------|
B|----------------------------------------------------------8-------6--------|
G|-8----------7---------------5----------7--------------------------------8--|
D|---------------------------------------------------------------------------|
A|---------------------------------------------------------------------------|
D|---------------------------------------------------------------------------|
  My dar..............ling                       what   matters   is   what    



MEASURES: 
          (28)                    (29)                       (30)
e|---------------------------------------------------------------------------|
B|---------------------------------------------------------------------------|
G|--8--8--8h10--8------------8--------7-----------------5-------7----------|
D|---------------------------------------------------------------------------|
A|---------------------------------------------------------------------------|
D|---------------------------------------------------------------------------|
    hasn't      been.       Hey....................now                   were  



MEASURES: 
        (31)                       (32)                     (33)
e|---------------------------------------------------------------------------|
B|---------------------------------------------------------------------------|
G|---8--------7-----------------5--------7----------------8--------7---------|
D|---------------------------------------------------------------------------|
A|---------------------------------------------------------------------------|
D|---------------------------------------------------------------------------|
 wide   awake        and      were       thinking  my dar.................ling 



MEASURES:
       (34)                         (35)                       (36)
e|---------------------------------------------------------------------------|
B|-------------------------------8--------6----------------------------------|
G|--5-----------7--------------------------------8------8--8---8h10---8------|
D|---------------------------------------------------------------------------|
A|---------------------------------------------------------------------------|
D|---------------------------------------------------------------------------|
                           Believe your voice can      mean something 





GUITAR 3
MEASURES
       (1)                        (2)                         (3)
e|---------------------------------------------------------------------------|
B|---------------------------------------------------------------------------|
G|---------------------------------------------------------------------------|
D|---------------------------------------------------------------------------|
A|---------------------------------------------------------------------------|
D|---------------------------------------------------------------------------|



MEASURES:
         (4)                        (5)                       (6)
e|---------------------------------------------------------------------------|
B|---------------------------------------------------------------------------|
G|---------------------------------------------------------------------------|
D|---------------------------------------------------------------------------|
A|---------------------------------------------------------------------------|
D|---------------------------------------------------------------------------|



MEASURE: 
         (7)                        (8)                          (9)
e|---------------------------------------------------------------------------|
B|---------------------------------------------------------------------------|
G|---------------------------------------------------------------------------|
D|---------------------------------------------------------------------------|
A|---------------------------------------------------------------------------|
D|---------------------------------------------------------------------------|
                                              Haaaaaa.................aaaaaa   








MEASURES:
        (10)                        (11)                       (12)
e|---------------------------------------------------------------------------|
B|---------------------------------------------------------------------------|
G|---------------------------------------------------------------------------|
D|---------------------------------------------------------------------------|
A|---------------------------------------------------------------------------|
D|---------------------------------------------------------------------------|
                     Haaaaaaa.....................aaaaaaa                      

MEASURES: 
          (13)                     (14)                      (15)
e|---------------------------------------------------------------------------|
B|---------------------------------------------------------------------------|
G|---------------------------------------------------------------------------|
D|---------------------------------------------------------------------------|
A|---------------------------------------------------------------------------|
D|---------------------------------------------------------------------------|


MEASURES: 
           (16)                    (17)                      (18)
e|---------------------------------------------------------------------------|
B|---------------------------------------------------------------------------|
G|---------------------------------------------------------------------------|
D|---------------------------------------------------------------------------|
A|---------------------------------------------------------------------------|
D|---------------------------------------------------------------------------|
                     Haaaaaaa...............aaaaaaa                     ha....

MEASURES:
           (19)                    (20)                     (21)
e|---------------------------------------------------------------------------|
B|---------------------------------------------------------------------------|
G|---------------------------------------------------------------------------|
D|---------------------------------------------------------------------------|
A|---------------------------------------------------------------------------|
D|---------------------------------------------------------------------------|
.....................aaaaaaaaaaaaaaaaaaaaaa            hey............now,     

MEASURES:
         (22)                       (23)                      (24)
e|---------------------------------------------------------------------------|
B|---------------------------------------------------------------------------|
G|---------------------------------------------------------------------------|
D|---------------------------------------------------------------------------|
A|---------------------------------------------------------------------------|
D|---------------------------------------------------------------------------|
                            The   past   is   told   by   those     who  win


MEASURES:
        (25)                       (26)                       (27)
e|---------------------------------------------------------------------------|
B|---------------------------------------------------------------------------|
G|---------------------------------------------------------------------------|
D|---------------------------------------------------------------------------|
A|---------------------------------------------------------------------------|
D|---------------------------------------------------------------------------|
  My dar..............ling                       what   matters   is   what    


MEASURES: 
          (28)                    (29)                       (30)
e|---------------------------------------------------------------------------|
B|---------------------------------------------------------------------------|
G|---------------------------------------------------------------------------|
D|---------------------------------------------------------------------------|
A|---------------------------------------------------------------------------|
D|---------------------------------------------------------------------------|
    hasn't      been.       Hey....................now                   were  


MEASURES: 
        (31)                       (32)                     (33)
e|---------------------------------------------------------------------------|
B|---------------------------------------------------------------------------|
G|---------------------------------------------------------------------------|
D|---------------------------------------------------------------------------|
A|---------------------------------------------------------------------------|
D|---------------------------------------------------------------------------|
 wide   awake        and      were       thinking  my dar.................ling 


MEASURES:
       (34)                         (35)                       (36)
e|-------------------------------------------------------------------|
B|-------------------------------------------------------------------|
G|------------------------------------------------13---12------------|
D|----------------------------------13-------15------------13-----13-|
A|---------------------------------------13--------------------13----|
D|-------------------------13-13-------------------------------------|
                           Believe your voice can      mean something 





GUITAR 2 !!!
MEASURES
       (1)                        (2)                         (3)
e|---------------------------------------------------------------------------|
B|---------------------------------------------------------------------------|
G|---------------------------------------------------------------------------|
D|---------------------------------------------------------------------------|
A|---------------------------------------------------------------------------|
D|---------------------------------------------------------------------------|



MEASURES:
         (4)                        (5)                       (6)
e|---------------------------------------------------------------------------|
B|---------------------------------------------------------------------------|
G|---------------------------------------------------------------------------|
D|---------------------------------------------------------------------------|
A|---------------------------------------------------------------------------|
D|---------------------------------------------------------------------------|



MEASURE: 
         (7)                        (8)                          (9)
e|---------------------------------------------------------------------------|
B|---------------------------------------------------------------------------|
G|---------------------------------------------------------------------------|
D|---------------------------------------------------------------------------|
A|---------------------------------------------------------------------------|
D|---------------------------------------------------------------------------|
                                              Haaaaaa.................aaaaaa  




MEASURES:
        (10)                        (11)                       (12)
e|---------------------------------------------------------------------------|
B|---------------------------------------------------------------------------|
G|---------------------------------------------------------------------------|
D|---------------------------------------------------------------------------|
A|---------------------------------------------------------------------------|
D|---------------------------------------------------------------------------|
                     Haaaaaaa.....................aaaaaaa                     

MEASURES: 
          (13)                     (14)                      (15)
e|---------------------------------------------------------------------------|
B|---------------------------------------------------------------------------|
G|---------------------------------------------------------------------------|
D|---------------------------------------------------------------------------|
A|---------------------------------------------------------------------------|
D|---------------------------------------------------------------------------|


MEASURES: 
           (16)                    (17)                      (18)
e|---------------------------------------------------------------------------|
B|---------------------------------------------------------------------------|
G|---------------------------------------------------------------------------|
D|---------------------------------------------------------------------------|
A|---------------------------------------------------------------------------|
D|---------------------------------------------------------------------------|
                     Haaaaaaa...............aaaaaaa                     ha....

MEASURES:
           (19)                    (20)                     (21)
e|---------------------------------------------------------------------------|
B|---------------------------------------------------------------------------|
G|---------------------------------------------------------------------------|
D|---------------------------------------------------------------------------|
A|---------------------------------------------------------------------------|
D|---------------------------------------------------------------------------|
.....................aaaaaaaaaaaaaaaaaaaaaa            hey............now,    

MEASURES:
         (22)                       (23)                      (24)
e|---------------------------------------------------------------------------|
B|---------------------------------------------------------------------------|
G|---------------------------------------------------------------------------|
D|---------------------------------------------------------------------------|
A|---------------------------------------------------------------------------|
D|---------------------------------------------------------------------------|
                            The   past   is   told   by   those     who  win


MEASURES:
        (25)                       (26)                       (27)
e|---------------------------------------------------------------------------|
B|---------------------------------------------------------------------------|
G|---------------------------------------------------------------------------|
D|---------------------------------------------------------------------------|
A|---------------------------------------------------------------------------|
D|---------------------------------------------------------------------------|
  My dar..............ling                       what   matters   is   what   


MEASURES: 
          (28)                    (29)                       (30)
e|---------------------------------------------------------------------------|
B|---------------------------------------------------------------------------|
G|---------------------------------------------------------------------------|
D|---------------------------------------------------------------------------|
A|---------------------------------------------------------------------------|
D|---------------------------------------------------------------------------|
    hasn't      been.       Hey....................now                   were 


MEASURES: 
        (31)                       (32)                     (33)
e|---------------------------------------------------------------------------|
B|---------------------------------------------------------------------------|
G|---------------------------------------------------------------------------|
D|---------------------------------------------------------------------------|
A|---------------------------------------------------------------------------|
D|---------------------------------------------------------------------------|
 wide   awake        and      were       thinking  my dar.................ling


MEASURES:
       (34)                         (35)                       (36)
e|-------------------------------------------------------------------|
B|-------------------------------------------------------------------|
G|------------------------------------------------1----0-------------|
D|-----------------------------------1--------3------------1------1--|
A|---------------------------------------1---------------------1-----|
D|-------------------------1--1--------------------------------------|
                           Believe your voice can      mean something 



GUITAR 1 !!!!!!!!
MEASURES
       (1)                        (2)                         (3)
e|---------------------------------------------------------------------------|
B|---------------------------------------------------------------------------|
G|---------------------------------------------------------------------------|
D|---------------------------------------------------------------------------|
A|---------------------------------------------------------------------------|
D|---------------------------------------------------------------------------|



MEASURES:
         (4)                        (5)                       (6)
e|---------------------------------------------------------------------------|
B|---------------------------------------------------------------------------|
G|---------------------------------------------------------------------------|
D|---------------------------------------------------------------------------|
A|---------------------------------------------------------------------------|
D|---------------------------------------------------------------------------|



MEASURE: 
         (7)                        (8)                          (9)
e|---------------------------------------------------------------------------|
B|---------------------------------------------------------------------------|
G|---------------------------------------------------------------------------|
D|---------------------------------------------------------------------------|
A|---------------------------------------------------------------------------|
D|---------------------------------------------------------------------------|
                                              Haaaaaa.................aaaaaa  




MEASURES:
        (10)                        (11)                       (12)
e|---------------------------------------------------------------------------|
B|---------------------------------------------------------------------------|
G|---------------------------------------------------------------------------|
D|---------------------------------------------------------------------------|
A|---------------------------------------------------------------------------|
D|---------------------------------------------------------------------------|
                     Haaaaaaa.....................aaaaaaa                     

MEASURES: 
          (13)                     (14)                      (15)
e|---------------------------------------------------------------------------|
B|---------------------------------------------------------------------------|
G|---------------------------------------------------------------------------|
D|---------------------------------------------------------------------------|
A|---------------------------------------------------------------------------|
D|---------------------------------------------------------------------------|


MEASURES: 
           (16)                    (17)                      (18)
e|---------------------------------------------------------------------------|
B|---------------------------------------------------------------------------|
G|---------------------------------------------------------------------------|
D|---------------------------------------------------------------------------|
A|---------------------------------------------------------------------------|
D|---------------------------------------------------------------------------|
                     Haaaaaaa...............aaaaaaa                     ha....

MEASURES:
           (19)                    (20)                     (21)
e|---------------------------------------------------------------------------|
B|---------------------------------------------------------------------------|
G|---------------------------------------------------------------------------|
D|---------------------------------------------------------------------------|
A|---------------------------------------------------------------------------|
D|---------------------------------------------------------------------------|
.....................aaaaaaaaaaaaaaaaaaaaaa            hey............now,     

MEASURES:
         (22)                       (23)                      (24)
e|---------------------------------------------------------------------------|
B|---------------------------------------------------------------------------|
G|---------------------------------------------------------------------------|
D|---------------------------------------------------------------------------|
A|---------------------------------------------------------------------------|
D|---------------------------------------------------------------------------|
                            The   past   is   told   by   those     who  win


MEASURES:
        (25)                       (26)                       (27)
e|---------------------------------------------------------------------------|
B|---------------------------------------------------------------------------|
G|---------------------------------------------------------------------------|
D|---------------------------------------------------------------------------|
A|---------------------------------------------------------------------------|
D|---------------------------------------------------------------------------|
  My dar..............ling                       what   matters   is   what        


MEASURES: 
          (28)                    (29)                       (30)
e|---------------------------------------------------------------------------|
B|---------------------------------------------------------------------------|
G|---------------------------------------------------------------------------|
D|---------------------------------------------------------------------------|
A|---------------------------------------------------------------------------|
D|---------------------------------------------------------------------------|
    hasn't      been.       Hey....................now                   were 


MEASURES: 
        (31)                       (32)                     (33)
e|---------------------------------------------------------------------------|
B|---------------------------------------------------------------------------|
G|---------------------------------------------------------------------------|
D|------------------------------------------------------1-1-----1--1---------|
A|------------------------------------------------------1-1-----1--1---------|
D|------------------------------------------------------1-1-----1--1---------|
 wide   awake        and      were       thinking  my dar.................ling                


MEASURES:
         (34)                       (35)                       (36)
e|---------------------------------------------------------------------------|
B|---------------------------------------------------------------------------|
G|---------------------------------------------------------------------------|
D|---1-1-----1---1------------1-1---------1---1---------1-1-------1---1------|
A|---1-1-----1---1------------1-1---------1---1---------1-1-------1---1------|
D|---1-1-----1---1------------1-1---------1---1---------1-1-------1---1------|
                           Believe your voice can      mean  something 



			        CHORUS 3

CHORUS 3 : GUITAR 1
e|---------------------------------------------------------------------------|
B|----(16x !!!!)---------------------------------(16x !!!!)------------------|
G|---------------------------------------------------------------------------|
D|-6-6-6-6-6-6-6-6-6-6-6-6-6-6-6-6--------1-1-1-1-1-1-1-1-1-1-1-1-1-1-1-1----|
A|-6-6-6-6-6-6-6-6-6-6-6-6-6-6-6-6--------1-1-1-1-1-1-1-1-1-1-1-1-1-1-1-1----|
D|-6-6-6-6-6-6-6-6-6-6-6-6-6-6-6-6--------1-1-1-1-1-1-1-1-1-1-1-1-1-1-1-1----|
   say hello to      good   times         trade up for the fast ride



e|---------------------------------------------------------------------------|
B|---------------( 16X )-----------------------------------------------------|
G|---------------------------------------------------------------------------|
D|--6---6---6---6---6---6---6---6--6---6---6---6---6---6---6---6-------------|
A|--6---6---6---6---6---6---6---6--6---6---6---6---6---6---6---6-------------|
D|--6---6---6--6--6---6---6---6--6---6---6---6---6---6---6---6-------------|           
 We close  our  eyes  while  the  nickeland  dime   take   the 



e|---------------------------------------------------------------------------|
B|-----( 8 X )-----------( 8 X )---------------------------------------------|
G|---------------------------------------------------------------------------|
D|---1-1-1-1-1-1-1-1-5-5-5-5-5-5-5-5-----------------------------------------|
A|---1-1-1-1-1-1-1-1-5-5-5-5-5-5-5-5-----------------------------------------|
D|---1-1-1-1-1-1-1-1-5-5-5-5-5-5-5-5-----------------------------------------|
       Stre.ets    compl.....etely

e|---------------------------------------------------------------------------|
B|--------( 8 X )----------------------------------( 8 X )-------------------|
G|---------------------------------------------------------------------------|
D|--6---6---6---6---6---6---6---6--8---8---8---8---8---8---8---8-------------|
A|--6---6---6---6---6---6---6---6--8---8---8---8---8---8---8---8-------------|
D|--6---6---6--6--6---6---6---6--8---8---8---8---8---8---8---8-------------|           
 We close  our  eyes  while  the  nickeland  dime   take   the 
 

e|---------------------------------------------------------------------------|
B|---------------------------------------------------------------------------|
G|---------------------------------------------------------------------------|
D|------1 1-----1--1----1--1----1--1------1-1----1--1----1--1----1--1--------|
A|------1 1-----1--1----1--1----1--1------1-1----1--1----1--1----1--1--------|
D|------1 1-----1--1----1--1----1--1------1-1----1--1----1--1----1--1--------|
       x x    x  x    x x    x x     x x    x x    x  x   x  x 
 The    str.................eets                                   com.......  


e|---------------------------------------------------------------------------|
B|---------------------------------------------------------------------------|
G|---------------------------------------------------------------------------|
D|----1-1-----------1--1---------1--1--------------1---1---1--1---1---1~~~~~~|
A|----1-1-----------1--1---------1--1--------------1---1---1--1---1---1~~~~~~|
D|----1-1-----------1--1---------1--1--------------1---1---1--1---1---1~~~~~~|
      X x           x  x         x  x              x   x   x  x   x   
   pletel..................................................y
	




CHORUS 3 : GUITAR 2!!! 
e|-6--------6--------6--------------------------6-----6-----6----------------|
B|----4--------4--------4--3--4-------------------4------4-----4--3--4-------|
G|---------------------------------------------------------------------------|
D|---------------------------------------------------------------------------|
A|---------------------------------------------------------------------------|
D|---------------------------------------------------------------------------|
    Say     he.......llo                to   good    ti.....mes 



e|-6--------6--------6--------------------------6-----6-----6----------------|
B|----4--------4--------4------3------4------------4------4-----4----3----4--|
G|---------------------------------------------------------------------------|
D|---------------------------------------------------------------------------|
A|---------------------------------------------------------------------------|
D|---------------------------------------------------------------------------|
   Trade    up       for               the       fast  ri....de


e|---6--------6--------6---------------------6-------6------6----------------|
B|------4--------4--------4-----3-----4-------4-------4-------4-----3----4---|
G|---------------------------------------------------------------------------|
D|---------------------------------------------------------------------------|
A|---------------------------------------------------------------------------|
D|---------------------------------------------------------------------------|
  We close    our      eyes  while   the  ni..ck..el and    dime take      
 

e|---------------------------------------------------------------------------|
B|--------8----6-----4-----3-----8----6----4--3------------------------------|
G|---------------------------------------------------------------------------|
D|---------------------------------------------------------------------------|
A|---------------------------------------------------------------------------|
D|---------------------------------------------------------------------------|
   The  str.......eets    comp...........letely


e|---6--------6--------6--------------------6-------6------6-----------------|
B|------4--------4--------4-----3-----4-------4-------4-------4-----3----4---|
G|---------------------------------------------------------------------------|
D|---------------------------------------------------------------------------|
A|---------------------------------------------------------------------------|
D|---------------------------------------------------------------------------|
  We close    our      eyes  while   the  ni..ck..el and    dime take      
 

e|-------------------------------------------------------------------|
B|-------------------------------------------------------------------|
G|-------------------1---0------------------------------1--0---------|
D|----------1-----3---------1-----1-------------1-----3-------1----1-|
A|-------------1---------------1-------------------1-------------1---|
D|---1-1--------------------------------1-1--------------------------|
   The       str...............eets    


e|-------------------------------------------------------------------|
B|-------------------------------------------------------------------|
G|---------------------------1---0---------1---0---------------------|
D|---------------1------3------------1-1----------1--1--1---1~~~~~~~~|
A|------------------1------------------------------------------------|
D|-13\1--1-1---------------------------------------------------------|
   completel..............................................y





CHORUS 3: GUITAR 3!!! 
e|---------------------------------------------------------------------------|
B|---------------------------------------------------------------------------|
G|---------------------------------------------------------------------------|
D|---------------------------------------------------------------------------|
A|---------------------------------------------------------------------------|
D|---------------------------------------------------------------------------|
    Say     he.......llo                to   good    ti.....mes 



e|---------------------------------------------------------------------------|
B|---------------------------------------------------------------------------|
G|---------------------------------------------------------------------------|
D|---------------------------------------------------------------------------|
A|---------------------------------------------------------------------------|
D|---------------------------------------------------------------------------|
   Trade    up       for               the       fast  ri....de


e|---------------------------------------------------------------------------|
B|---------------------------------------------------------------------------|
G|---------------------------------------------------------------------------|
D|---------------------------------------------------------------------------|
A|---------------------------------------------------------------------------|
D|---------------------------------------------------------------------------|
  We close    our      eyes  while   the  ni..ck..el and    dime take      
 

e|---------------------------------------------------------------------------|
B|------------------------------------------8-8-8-8-8-8-8-8h9-9-9-9-9--------|
G|---------------------------------------------------------------------------|
D|---------------------------------------------------------------------------|
A|---------------------------------------------------------------------------|
D|---------------------------------------------------------------------------|

   The  str.......eets    comp...........letel...............y


e|---------------------------------------------------------------------------|
B|---------------------------------------------------------------------------|
G|---------------------------------------------------------------------------|
D|---------------------------------------------------------------------------|
A|---------------------------------------------------------------------------|
D|---------------------------------------------------------------------------|
  We close    our      eyes  while   the  ni..ck..el and    dime take      
 

e|-------------------------------------------------------------------|
B|-------------------------------------------------------------------|
G|-------------------13--12-----------------------------13-12--------|
D|----------13----15--------13----13-----------13----13------13---13-|
A|-------------13--------------13-----------------13- ----------13---|
D|----13-13---------------------------13-13-x------------------------|
   The       str...............eets    


e|-------------------------------------------------------------------|
B|-------------------------------------------------------------------|
G|---------------------------13--12--------13-12---------------------|
D|---------------13-----13-----------13-13-------13-13-13--13~~~~~~~~|
A|------------------13-----------------------------------------------|
D|-----13-13---------------------------------------------------------|
   completel..............................................y


			THE END!!!!!!!!
______________________________________________________________________________

SONG ORDER-

INTRO  1
VERSE  1
CHORUS 1
INTRO  2
VERSE  2
CHORUS 2
BRIDGE
CHORUS 3


______________________________________________________________________________

| /  slide up
| \  slide down
| h  hammer-on
| p  pull-off
| ~  let the not keep going
| +  harmonic
| x  Mute note
==============================================================================

LYRICS-


VERSE 1
I! Always believed in futures! 
I hope for better 
In November... 
I! Try the same losing lucky numbers 
It could be a cold night... 
For a lifetime 
Hey now... 
You can't keep saying endlessly: 
My darling 
How long until this affects me? 

CHORUS 1
Say hello to good times 
Trade up for the fast ride 
We close our eyes while the nickel and dime take the streets... 
Completely 


VERSE 2
I! always could count on futures! 
That things will look up 
And they look up 
Why is it so hard to find balance 
Between living decent 
And the cold and real 
Hey now 
What is it you think you see? 
My darling, 
Now's the time to disagree 



CHORUS 2
Say hello to good times! 
Trade up for the fast ride! 
We close our eyes while the nickel and dime hit the streets 
Completely 



BRIDGE
Hey now, 
The past is told by those who win 
My darling, 
What matters is what hasn't been 
Hey now, 
We're wide awake and we're thinking 
My darling, 
Believe your voice can mean something 


CHORUS 3
Say hello to good times 
Trade up for the fast ride 
We close our eyes while the nickel and dime take the streets completely 
We close our eyes while the nickel and dime 
Take the streets 
Completely


From MTV: 
"The song is about George W. Bush, yeah. It's about being dissatisfied
with how things are going and about greed taking over," frontman Jim Adkins
said. "The speakers [in the song] are coming from a place where they've done
everything right  a successful career, financial stability  but they're still
getting squashed by the larger greed. They're taking it to the man."
Comments