Jimmy Eat World - Futures Chords & Tabs

 

Futures Chords & Tabs

Jimmy Eat World Chords & Tabs

Version: 1 Type: Tab 0 ratings
1 star 2 stars 3 stars 4 stars 5 stars
comments

Futures Tab

Found this tab at Taborama for you guys.

Note:
Drop D Tuning

I've included all that I can make out.  Some 2nd/3rd guitar parts were too intertwined to
pick out but I'm sure they're just octaves of the main lead.
This will give you a good starting point.


Main Riff (Palm Muted)
E----------------------------------------------------------------|
B----------------------------------------------------------------|
G----------------------------------------------------------------|
D-1-1--1-1---1-1--1-1--------------------------------------------|
A-1-1--1-1---1-1--1-1---(repeat throughout)----------------------|
E-1-1--1-1---1-1--1-1--------------------------------------------|

Lead Guitar over begining of Main Riff x2
(there's a slight variation the last time played at the end)
E----------------------------------------------------------------|
B----------------------------------------------------------------|
G----------------------------------------------------------------|
D---------------6-5-------------------------6-5------------------|
A-------8-6---6------6-----6--------8-6---6------6-----6\--------|
E-1-1-x-----8-----------8-----1-1-x-----8-----------8------------|

Vocals come in and repeat the Main Riff with Guitar 2.
[ Tab from: http://www.guitartabs.cc/tabs/j/jimmy_eat_world/futures_tab.html ]
Guitar 2 Over Main Riff (this is close but not exact)
E----------------------------------------------------------------|
B----------------------------------------------------------------|
G-3-3-3-3--(continue strumming throughout verse 32 x's)----------|
D-1-1-1-1--------------------------------------------------------|
A----------------------------------------------------------------|
E----------------------------------------------------------------|

Lead at End of Main Riff before Chorus
E-----6---6-------6---6---6-------6---6---6-------6---4---3---1---|
B---4---4---4-3h4---4---4---4-3h4---4---4---4-3h4---4---4---4---4-|
G-5---------------------------------------------------------------|
D-----------------------------------------------------------------|
A-----------------------------------------------------------------|
E-----------------------------------------------------------------|

Chorus
E----------------------------------------------------------------|
B----------------------------------------------------------------|
G----------------------------------------------------------------|
D--6-6-6-6-----1-1-1-1-----6-6-6-6-----1-1-1-1-------------------|
A--6-6-6-6-x4--1-1-1-1-x4--6-6-6-6-x4--1-1-1-1-x4----------------|
E--6-6-6-6-----1-1-1-1-----6-6-6-6-----1-1-1-1-------------------|

Return to Main Riff with Lead Guitar.

Return to verse with Main Riff and Guitar 2.

Return to Chorus.

Slow breakdown on acoustic
E-6-------6-------6-------6-------6-------6-------8-------8-------|
B---4---4---4---4---4---4---4---4---4---4---4---4---8---8---8---8-|
G-----7-------7-------7-------7-------7-------7-------7-------7---|
D-----------------------------------------------------------------|
A-----------------------------------------------------------------|
E-----------------------------------------------------------------|

Introduce the Main Riff at the end and not palm muted.

Return to Chorus.

Return to Main Riff palm muted with Lead Guitar ending on F.
Comments