Jimmy Eat World - For Me This Is Heaven Chords & Tabs

 

For Me This Is Heaven Chords & Tabs

Jimmy Eat World Chords & Tabs

Version: 1 Type: Bass Tab 0 ratings
1 star 2 stars 3 stars 4 stars 5 stars
comments

For Me This Is Heaven Bass Tab

"For Me This Is Heaven" by Jimmy Eat World
Transcribed by Jon Ritts (BigEarl192000@yahoo.com)

Tuned in Drop D

Rest during 1st verse

Chorus: (0:25)
G|-------------|-------------|-------------|-------------|
D|-------------|-------------|-------------|-------------|
A|-------------|-------------|-------------|-------------|
D|-6---6---6---|-8---8---8-8-|---4-4---4---|---4-4---4-4-|

G|-------------|-------------|-------------|-------------|
D|-------------|-------------|-------------|-------------|
A|-------------|-------------|-------------|-------------|
D|-----6---6---|-8---8---8-8-|---4-4---4---|---4-4---4-4-|
[ Tab from: http://www.guitartabs.cc/tabs/j/jimmy_eat_world/for_me_this_is_heaven_btab.html ]
2nd Verse: (0:37)
G|-------------|-------------|-------------|-------------|
D|-------------|-------------|-------------|-------------|
A|-------------|-------------|-------------|-------------|
D|-----6---6---|-8---8---8-8-|---4-4---4---|---4-4---4-4-| (play 4x)

Play chorus 2x (1:00)
Rest during 1st bridge
Play verse 4x (1:36)
Play chorus 2x (2:00)

2nd Bridge: (2:23)
G|-------------|-------------|-------------|-------------|
D|-------------|-------------|-------------|-------------|
A|-4---4-----4-|-4-4-4---4---|-------------|-------------|
D|-------------|-------------|-4-4-4---4---|-4-4-4---4-4-|

G|-------------|-------------|-------------|-------------|
D|-------------|-------------|-------------|-------------|
A|-------------|-------------|-------------|-------------|
D|-8---8-----8-|-8-8-8---8---|-4-4-4---4---|-4-4-4---4-4-| (play 4x)

2nd Bridge, Part 2: (3:11)
G|-------------|-------------|-------------|-------------|
D|-------------|-------------|-------------|-------------|
A|-------------|-------------|-------------|-------------|
D|-8---8-----8-|-8-8-8---8---|-4-4-4---4---|-4-4-4---4-4-| (play 2x)

Play chorus 2x (3:23)
Comments