Jimmy Eat World - Concept Chords & Tabs

 

Concept Chords & Tabs

Jimmy Eat World Chords & Tabs

Version: 1 Type: Bass Tab 0 ratings
1 star 2 stars 3 stars 4 stars 5 stars
comments

Concept Bass Tab

Artist: Jimmy Eat World
Song: The Concept
Album: (Unreleased)
Tabbed by: Kmilongo (kmilo1989@gmail.com)
Tuning: Standard 4-string (GDAE)

NOTE: This song does NOT have a bass line. 
This tab is an idea of the notes that the bass should play.
Use it for your personal joy =)

Intro/Verse (Bass starts at 0:02)

G|-------------------------------------|
D|-------------------------------------|
A|--------------------3~---5~----------|
E|3~---2~---0~---0~-------------3~---3~| (x3)

Chorus (0:58)

G|-----------------------|
D|-----------------------|
A|2320~---5~-------------|
E|-------------3~--2~--0~|
[ Tab from: http://www.guitartabs.cc/tabs/j/jimmy_eat_world/concept_btab.html ]
G|--------------------|
D|--------------------|
A|0~---5~-------------|
E|----------3~--2~--0~|

After Chorus (1:18)

G|---------------|
D|---------------|
A|0~------3~---5~|
E|---------------|

Verse (1:27)

G|-------------------------------------|
D|-------------------------------------|
A|--------------------3~---5~----------|
E|3~---2~---0~---0~-------------3~---3~| (x2)

Chorus (2:05)

G|----------------------|
D|----------------------|
A|320~---5~-------------|
E|------------3~--2~--0~|

G|--------------------|
D|--------------------|
A|0~---5~-------------|
E|----------3~--2~--0~| (x3)

Final (2:43)

G|--------------------|
D|--------------------|
A|0~------3~---5~-----|
E|------------------3~|
Comments