Jimmy Eat World - Clarity Chords & Tabs

 

Clarity Chords & Tabs

Jimmy Eat World Chords & Tabs

Version: 1 Type: Bass Tab 0 ratings
1 star 2 stars 3 stars 4 stars 5 stars
comments

Clarity Bass Tab

   
"Clarity" by Jimmy Eat World
Transcribed by Jon Ritts (BigEarl192000@yahoo.com)

Tuned in Drop D

Intro:
G|-x-x-x-x-x-x-x-x-|
D|-x-x-x-x-x-x-x-x-|
A|-x-x-x-x-x-x-x-x-|
D|-x-x-x-x-x-x-x-x-|

2nd Intro: (0:02)
G|-----------------|-----------------|-----------------|-----------------|
D|-----------------|-----------------|-----------------|-----------------|
A|-4---4---4-4-4-4-|-4---4---4-4-4-4-|-2---2---2-2-2-2-|-2---2---2-2-2-2-|
D|-----------------|-----------------|-----------------|-----------------|

G|-----------------|-----------------|-----------------|-----------------|
D|-----------------|-----------------|-----------------|-----------------|
A|-0---0---0-0-0-0-|-0---0---0-0-0-0-|-----------------|-----------------|
D|-----------------|-----------------|-2---2---2-2-2-2-|-2---2---2-2-2-2-|
 (play 2x)

Verse: (0:20)
G|------------------------|------------------------|-----------------|
D|-11---11-11-11-11-11-11-|-11---11-11-11-11-11-11-|-9---9-9-9-9-9-9-|
A|------------------------|------------------------|-----------------|
D|------------------------|------------------------|-----------------|
[ Tab from: http://www.guitartabs.cc/tabs/j/jimmy_eat_world/clarity_btab.html ]
G|-----------------|------------------------|------------------------|
D|-9---9-9-9-9-9-9-|------------------------|------------------------|
A|-----------------|-12---12-12-12-12-12-12-|-12---12-12-12-12-12-12-|
D|-----------------|------------------------|------------------------|

G|-----------------|-----------------|
D|-----------------|-----------------|
A|-7---7-7-7-7-7-7-|-7---7-7-7-7-7-7-|
D|-----------------|-----------------| (play 4x)

Chorus: (0:56)
G|-----------------|-----------------|-----------------|-----------------|
D|-----------------|-----------------|-----------------|-----------------|
A|-0---0---0---0---|-0---0---0---0---|-----------------|-----------------|
D|-----------------|-----------------|-2---2---2---2---|-2---2---2---2---|

G|-----------------|-----------------|-----------------|-----------------|
D|-----------------|-----------------|-----------------|-----------------|
A|-----------------|-----------------|-0---0---0---0---|-0---0---0---0---|
D|-4---4---4---4---|-4---4---4---4---|-----------------|-----------------|
 (play 4x)

Fill 1: (1:31)
G|-----------------|-----------------|
D|-----------------|-----------------|
A|-0---0---0---0---|-0---0---0---0---|
D|-----------------|-----------------|

Play Verse 4x (1:33)
Play Chorus 4x (2:09)
Follow this with Fill 1, 1x (2:45)
Play 2nd Intro 4x (2:47)
Play Chorus 4x (3:23)
End with Fill 1, 1x (3:59)
Comments