Jimmy Eat World - Blister Chords & Tabs

 

Blister Chords & Tabs

Jimmy Eat World Chords & Tabs

Version: 2 Type: Bass Tab 0 ratings
1 star 2 stars 3 stars 4 stars 5 stars
comments

Blister Bass Tab

   
Artist: Jimmy Eat World
Title: Blister
Album: Clarity

I saw them perform this live and I fell in love with it.  So here's your tab...


Verse 1
G-|-----------------------------------------------------------------
D-|-----------------------------------------------------------------
A-|-----------------5-5-5-5-5-5-5-5-9-9-9-9-9-9-9-9-7-7-7-7-5-5-5-5-
E-|-7-7-7-7-7-7-7-7-------------------------------------------------

G-|---------------------------------|
D-|---------------------------------|
A-|-----------------5-5-5-5-5-5-5-5-|
E-|-7-7-7-7-7-7-7-7-----------------|


Chorus (rest for most of it; only play with guitar 2)
G-|-------------------------|
D-|-------------------------|
A-|-5-5-5-5-5-5-5-5-5-5-5-5-|
E-|-------------------------|

[ Tab from: http://www.guitartabs.cc/tabs/j/jimmy_eat_world/blister_btab_ver_2.html ]
Verse 2
G-|-----------------------------------------------------------------|
D-|-----------------------------------------------------------------|
A-|-----------------------------------------------------------------|
E-|-7-7-7-7-7-7-7-7-0-0-0-0-0-0-0-0-5-5-5-5-5-5-5-5-5-5-5-5-5-5-5-5-|


Bridge
G-|-----------------------------------------------------------------|
D-|-----------------------------------------------------------------|
A-|-----------------------------------------------------------------|
E-|-9-9-9-9-9-9-9-9-0-0-0-0-0-0-0-0-5-5-5-5-5-5-5-5-5-5-5-5-5-5-5-5-|


Last Chorus
G-|-----------------------------------------------------------------
D-|-----------------------------------------------------------------
A-|-5-5-5-5-5-5-5-5-5-5-5-5-5-5-5-5-4-4-4-4-4-4-4-4-4-4-4-4-4-4-4-4-
E-|-----------------------------------------------------------------

G-|---------------------------------|
D-|---------------------------------|
A-|-5-5-7-7-9-9-7-7-5-5-5-5-5-5-5-5-|
E-|---------------------------------|


Order:
Verse 1 x2
Chorus x2
Verse 2 x4
Chorus x2
Bridge x4
Quiet chorus w/ no bass
Last Chorus x2
End on E (open 4th)
Comments