Jimmy Eat World - Blister Chords & Tabs

 

Blister Chords & Tabs

Jimmy Eat World Chords & Tabs

Version: 1 Type: Bass Tab 0 ratings
1 star 2 stars 3 stars 4 stars 5 stars
comments

Blister Bass Tab

"Blister" by Jimmy Eat World
Transcribed by Jon Ritts (BigEarl192000@yahoo.com)

Tuned in Drop D

Rest during Intro

Verse: (0:08)
G|-----------------|-----------------|-----------------|-----------------|
D|-----------------|-----------------|-----------------|-----------------|
A|-----------------|-----------------|-----------------|-----------------|
D|-7---7---7-7-7-7-|-0---0---0-0-0-0-|-5---5---5-5-5-5-|-5---5---5-5-5-5-|
 (play 4x)

Chorus: (0:31)
G|-----------------|-----------------|-----------------|-----------------|
D|-----------------|-----------------|-----------------|-----------------|
A|-----------------|-----------------|-----------------|-----------------|
D|-----------------|-----------------|-----------------|-----------------|

G|-----------------|-----------------|-----------------|-----------------|
D|-----------------|-----------------|-----------------|-----------------|
A|-----------------|-----------------|-----------------|-----------------|
D|-----------------|-----------------|-5---5---5---5-5-|---5-5---5-5-5-5-|
 (play 2x)

Rest during transition to next verse
Play Verse 4x (0:59)
Play Chorus 2x (1:22)
[ Tab from: http://www.guitartabs.cc/tabs/j/jimmy_eat_world/blister_btab.html ]
Bridge: (1:45)
G|-----------------|-----------------|-----------------|-----------------|
D|-----------------|-----------------|-----------------|-----------------|
A|-----------------|-----------------|-----------------|-----------------|
D|-9---9---9-9-9-9-|-9---9---9-9-9-9-|-0---0---0-0-0-0-|-0---0---0-0-0-0-|

G|-----------------|-----------------|-----------------|-----------------|
D|-----------------|-----------------|-----------------|-----------------|
A|-----------------|-----------------|-----------------|-----------------|
D|-5---5---5-5-5-5-|-5---5---5-5-5-5-|-5---5---5-5-5-5-|-5---5---5-5-5-5-|
 (play 4x)

Rest during the soft Chorus (2:31)

Last Chorus: (2:54)
G|-----------------|-----------------|-----------------|-----------------|
D|-----------------|-----------------|-----------------|-----------------|
A|-5---5---5-5-5-5-|-5---5---5-5-5-5-|-4---4---4-4-4-4-|-4---4---4-4-4-4-|
D|-----------------|-----------------|-----------------|-----------------|

G|-----------------|-----------------|-----------------|-----------------|
D|-----------------|-----------------|-----------------|-----------------|
A|-2---2---2-2-2-2-|-2---2---2-2-2-2-|-----------------|-----------------|
D|-----------------|-----------------|-5---5---5---5-5-|---5-5---5-5-5-5-|

Ending: (3:17)
G|-----------------|
D|-----------------|
A|-5---------------|
D|-----------------|
Comments